Song name
# A B C D E F G H I J K L M N O P Q R S T U V W X Y Z

Left Lane Cruiser - Hillgrass Bluebilly tab

---------------------------------------------------------
          HILLGRASS BLUEBILLY - Left Lane Cruiser
--------------------------------------------------------- 
Special thanks go to tonibet72.
For this song you'll need a slide. Have Fun.

Tuning: Open D   D A D F# A D

                 ***VERSES RIFF.1***       
     1   &   a   2   &   a   3   &   a   4   &   a 
d |--------------------------------------------------|R|
a |--------------------------------------------------|E|
F#|--------------------------------------------------|P|
D |-(0)-----(0)-(5)-----(3)-(0)-----(0)-(3)p(0)-(0)--|E|
A |-(0)------0---5-------3---0-------0---3-p-0---0---|A|
D |-(0)------0---5-------3---0-------0---3-p-0---0---|T|

(The Turn arounds)
1ST...  2ND...
|---|   |----|----|
|---|   |----|----|
|-5-|   |-7--|-5--|
|-5-|   |-7--|-5--|
|-5-|   |-7--|-5--|
|-5-|   |-7--|-5--|


                        ***LEAD***
     1 & a 2 & a 3 & a 4 & a   1 & a 2 & a 3 & a 4 & a     
d |-----(0)---(0)---(0)---(0)|----(0)----3-3--(0)----(0)|R|
a |--3p0-0-3p0-0-3p0-0-3p0-0-|-3p0-0-3p0---------3p0--0-|E|
F#|--------------------------|--------------------------|P|
D |--------------------------|--------------------------|E|
A |--------------------------|--------------------------|A|
D |--------------------------|--------------------------|T|
                                                             
       1 & a 2 & a 3 & a 4 & a   1 & a 2 & a 3 & a 4 & a    
d |--/-5---5-5---5-5---5-5---5---5---5-5---5\----0-3p0----|
a |--/-5---5-5---5-5---5-5---5---5---5-5---5\----0-3p0----|
F#|--/-5---5-5---5-5---5-5---5---5---5-5---5\----0-3p0----|
D |--/-5--------------------------------------------------|
A |-------------------------------------------------------|
D |-------------------------------------------------------|
                                                       
     1 & a 2 & a 3 & a 4 & a   1 & a 2 & a 3 & a 4 & a      
d |--0---/-12----------3p0-3---0---/-12----------3p0-0----|
a |--0---/-12----------3p0-3---0---/-12----------3p0-0----|
F#|--0---/-12----------3p0-3---0---/-12----------3p0-0----|
D |--0-------------------------0--------------------------|
A |-------------------------------------------------------|
D |-------------------------------------------------------|
                                                           
       1 & a 2 & a 3 & a 4 & a    1 & a 2 & a 3 & a 4 & a   
d |--/-7---7-7---7-7---7-7-6-5--/-5---5-5---5-5---0-3\2\0-|
a |--/-7---7-7---7-7---7-7-6-5--/-5---5-5---5-5---0-3\2\0-|
F#|--/-7---7-7---7-7---7-7-6-5--/-5---5-5---5-5---0-3\2\0-|
D |--/-7---7-7---7-7---7-7-6-5--/-5---5-5---5-5---0-3\2\0-|
A |-------------------------------------------------------|
D |-------------------------------------------------------|
                                                             
     1 & a 2 & a 3 & a 4 & a   1 & a 2 & a 3 & a 4 & a      
d |--------------------------------------------------------|
a |--------------------------------------------------------|
F#|------0-----0-----0-----0-------0/7---7-7---7-7----x----|
D |------0-----0-----0-----0-------0/7---7-7---7-7----x----|
A |--0-----3-----2-----1-------0---0/7---7-7---7-7----x----|
D |--0------------------------------/7---7-7---7-7---------|


                     ***BRIDGE RIFF.3***
     1 & a 2 & a 3 & a 4 & a   1 & a   2 &  a  3 & a   4 & a    
d |-----(7)---(7)------------|--------------------------------|
a |-----(7)---(7)------------|--------------------------------|
F#|--7---7-8---7-8---7-------|-11--10--11---10-----10--11\----|
D |--7---7-7---7-7---7-------|-10--10--10---10-----10--10\----|
A |--7---7-7---7-7---7-------|-10--10--10---10-----10--10\----|
D |--7-----------------------|--------------------------------|


     1 & a 2 & a 3 & a 4 & a   1 & a 2 & a 3 & a 4 & a
d |--------------------------|-------------------------|
a |--------------------------|-------------------------|
F#|--5---5-6---5-5---5-6---5-|-5---5-6---5-5---5-6\----|
D |--5---5-5---5-5---5-5---5-|-5---5-5---5-5---5-5\----|
A |--5---5-5---5-5---5-5---5-|-5---5-5---5-5---5-5\----|
D |--5-----5-----5-----5-----|-5-----5-----5-----5-----|


                  ***THE VERY LAST RIFF***
     1 & a 2 & a 3 & a 4 & a   1 & a 2 & a 3 & a 4 & a      
d |-------------------------------------------------------||
a |-------------------------------------------------------||E
F#|------0-----0-----0-----0------------------------------||N
D |------0-----0-----0-----0---0-----3-----------0--------||D
A |--0-----3-----2-----1-------0-----3-----------0--------||
D |--0-------------------------0-----3-----------0--------|| 
Tap to rate this tab
 
# A B C D E F G H I J K L M N O P Q R S T U V W X Y Z