Guitaretab - guitar tabs
Song name
# A B C D E F G H I J K L M N O P Q R S T U V W X Y Z

Left Over Bridge - White Guy Blues No1 tab

Tableture for 'White Guy Blues #1' by Left Over Bridge 
Written by Jordan Willard
Slide = /
Bend = ^ 
[ ] = Hammer On/ Pulloff



                      (Through Whole Song, G#2)
e[----------------------------------------------------------------------------]
b[----------------------------------------------------------------------------]
g[----------------------------------------------------------------------------]
d[----------------------------------------------------------------------------]
a[----------------------------------------------------------------------------]
e[-0/10---------------------0/11----------------------------------------------]


[ Tab from: http://www.guitaretab.com/l/left-over-bridge/182810.html ]
                             (Chorus, G#1) 
e[----------------------------------------------------------------------------]
b[----------------------------------------------------------------------------]
g[-----------------------------------------------------[Repeat x2]------------]
d[----------------------------------------------------------------------------]
a[-1--0--3--0--5--0--12^--1--0--3--0--5--0--13^--1--0--3--0--5--0--14^--------]
e[-1--0--3--0--5--0--12^--1--0--3--0--5--0--13^--1--0--3--0--5--0--14^--------]



                              [Solo G#1]  
e[-14--13--12-----------------------------------------------------------------]
b[------------[11/12/11/12/11/12/11/12]------------------------[Repeat x5]----]
g[----------------------------------------------------------------------------]
d[----------------------------------------------------------------------------]
a[----------------------------------------------------------------------------]
e[----------------------------------------------------------------------------]
 
        


All Music Written by Left Over Bridge. Other tabs out later. Look out for 
our Debut album, Ugly. It'll be nice, I Promise. Check out other variations
when added by me. (Will be on other albums.0
Related for White Guy Blues No1 tab
Advertisement will be closed in 10 seconds