Song name
# A B C D E F G H I J K L M N O P Q R S T U V W X Y Z

Left Over Bridge - The Toy tab

Help us improve GuitareTab! Take a short survey!
                     Solo for 'The Toy' by Left Over Bridge   
                            Written by Jordan Willard


e[-----------12^-12-12-12-12-12-10-8-7-9-7-5-4--------------------------------]
b[-12^-12-10-----------------------------------9^-9-7---9^-9-9-9-9-9-9-9------]
g[----------------------------------------------------9------------------7-5--]
d[---------------------------------------------------------------------------7]
a[----------------------------------------------------------------------------]
e[----------------------------------------------------------------------------]



e[-------I-17^-17-15-------15-17^-17-17-17-17-17-17-[17/15]-17-15-14-12-------]
b[-------I-----------17-15----------------------------------------------------]
g[-5-3---I--------------------------------------------------------------------]
d[-----5-I--------------------------------------------------------------------]
a[-------I--------------------------------------------------------------------]
e[-------I--------------------------------------------------------------------] 



e[----------------------------[7/6/5]-4-3-2-3-4-[7/6/5]--------------------7^-]
b[-[12/11/10]-9-7-5-7-5---5--------------------------------5-7-[7/9/7]--------]
g[-------------7--------------------------------------7-----------------------]
d[----------------------------------------------------------------------------]
a[----------------------------------------------------------------------------]
e[----------------------------------------------------------------------------]
Related for The Toy tab