Song name
# A B C D E F G H I J K L M N O P Q R S T U V W X Y Z

Left Over Bridge - The Toy tab

Highlighted       Show chord diagrams
'The toy' written by Left Over Bridge, Lead vocals by guest- Kaitlyn Baldwin.
Standard eBGDAE 

                                
                      (Intro G#2) [Repeat through All Verses]        
e[----------------------------------------------------------------------------]
b[----------------------------------------------------------------------------]
g[---------2------------2-------------0-------------0-------------------------]
d[-----2-----0-------2----0-------2-----2-------2-----2-----[Repeat x2]-------]
a[---0---0-----0---0--0-----0---0---0-----0---0---0-----0---------------------]
e[-0-------------0------------0-------------0-------------0-------------------]

Em      Am        Dm        Em 
I don't know what I've been told 
       Em         F          C         G
You'll never grow up, You'll never die old   
       Em       Am    Dm       Em 
You'll never go down, Never be anybodies clown  
           Em     F            C                   G
And you'll always remember the world when you're a boy [Kaitlyn Version = Gal] 

                                [Chorus] 
        Em      Dm       Am         Dm
And the face of kindness Shone upon you 
        Em             Am         Dm           Em
And the world that you threw away came back to me     

                                 [Verse] 
Em      Am      Dm      Em
I don't see how you can be      
Em  F    C   G
Anything but yourself 
Em      Am   Dm      Em
I don't know who you are
       Em       F    C  G
And it all goes back to you 
                      
                                 [Chorus] 
      Em       Dm          Am            Dm
And I See your face and it comes back to me
        Em             Am         Dm          Em
And the world that you threw away goes out to sea 

                        [Solo to be tabbed later.] 
      
                                 [Ending Verse]

      Em       Am
And I Saw Your Face
       Dm      Em
And It Made Me Sick 
    Em      F
And I tried again
       C         Em
And it failed to miss 
                                 [Ending Chorus] 

      Em       Am          Dm            Em
And I see your face and it comes back to me  
        Em            Am         Dm          Em
And the love that you threw away goes out to sea 
               
                                 [Ending Figure]  

e[-2--------------------0-------------------------------]
b[-1--------------------0-------------------------------]
g[-2----5--7--8--7--5---0-------------------------------]
d[-0--------------------2-------------------------------]
a[----------------------2-------------------------------]
e[----------------------0-------------------------------]
Tap to rate this tab
 
# A B C D E F G H I J K L M N O P Q R S T U V W X Y Z