Song name
# A B C D E F G H I J K L M N O P Q R S T U V W X Y Z

Left Right Out - Red Dragon tab

e--------------------------3--2--0-2-------------------|
b--5---3---5----3--5--3--------------------------------|
g-------------------------------------5-0-5-0--4-0-4-0-|  x3
d------------------------------------------------------|
a------------------------------------------------------|
e------------------------------------------------------|


e-----/---------------/---------15-13-----------15----13-/------7-------7---|
b-----/---------------/-12-12----------12---12-----------/--8-8--8---8-8--8-|
g-----/---------------/----------------------------------/------------------|
d-----/---------------/----------------------------------/------------------|
a-----/------1____7---/----------------------------------/------------------|
e-0~~-/---------------/----------------------------------/------------------|

e------7------------------/--7--------3---7--3----5--2-5-2--------------------|
b-7-7-----7----7--7--7-8--/--8--------5---8--5----7--3-7-3--------------------|
g-------------------------/---------------------------------------------------|
d-------------------------/---------------------------------------------------|
a-------------------------/---------------------------------------------------|
e-------------------------/---------------------------------------------------|
Tap to rate this tab
# A B C D E F G H I J K L M N O P Q R S T U V W X Y Z