Song name
# A B C D E F G H I J K L M N O P Q R S T U V W X Y Z

Left Unsaid - Bottle Rocket tab

------------------------------------------------------------------------------- 
                 BOTTLE ROCKET - Left Unsaid
------------------------------------------------------------------------------- 

By:Jordan McCall jordanm@usa.com 

Guitar 1 (Repeat throughtout song) 
e|---------------------------------------------------------------------------| 
B|---------------------------------------------------------------------------| 
G|-------7------5-4--------5---9---7-----------------------------------------| 
D|5------7------5-4-2------5---9---7-----------------------------------------| 
A|5------5------3-2-2------3---7---5-----------------------------------------| 
E|3-----------------0--------------------------------------------------------| 

Guitar 2 
e|---------------------------------------------------------------------------| 
B|---------------------------------------------------------------------------| 
G|0-0-0-2-0-0-4-0-5-4-2-0-0-0-2-0-0-4-0-5-7-5--------------------------------| 
D|---------------------------------------------------------------------------| 
A|---------------------------------------------------------------------------| 
E|---------------------------------------------------------------------------| 

e|---------------------------------------------------------------------------| 
B|---------------------------------------------------------------------------| 
G|0-0-0-2-0-0-4-0-5-4-2-0-0-0-4-0-7-0-5-0-4-0-0------------------------------| 
D|---------------------------------------------------------------------------| 
A|---------------------------------------------------------------------------| 
E|---------------------------------------------------------------------------| 

That pretty much makes up the whole song, but there are other parts that are 
easily figured out since they are just minor variations. If you have anything 
to add e-mail me at jordanm@usa.com 

-------------------------------------------------------------------------------
Tap to rate this tab
 
# A B C D E F G H I J K L M N O P Q R S T U V W X Y Z