Song name
# A B C D E F G H I J K L M N O P Q R S T U V W X Y Z

Left Unsaid - Dresden tab

Help us improve GuitareTab! Take a short survey!
ww.leftunsaid.com

Tabbed By The Jackal

Drop D down 1 step

    Guitar 1     X2
D|-----------------------------------------------------------------------------|
A|-----------------------------------------------------------------------------|
F|-----------------------------------------------------------------------------|
C|---5-5---5-5---5-----4-4---4-4---4/5-----------------------------------------|
G|--2-----2-----2-----0-----0-----0--------------------------------------------|
C|-2-----2-----2-----0-----0-----0---------------------------------------------|

Guitar 2 On second time:
D|-----------------------------------------------------------------------------|
A|---4-4---4-4---5-----2-2---2-2---0-------------------------------------------|
F|-----------------------------------------------------------------------------|
C|-----------------------------------------------------------------------------|
G|-----------------------------------------------------------------------------|
C|-----------------------------------------------------------------------------|

D|----------------------------------------------------------------------------------|
A|----------------------------------------------------------------------------------|
F|----4-4----4-4----4/5----2-2----2-2----2h4----------------------------------------|
C|-22-----22-----22-----00-----00-----00----4h5-------------------------------------|
G|-22-----22-----22-----00-----00-----00--------------------------------------------|
C|-22-----22-----22-----00-----00-----00--------------------------------------------|
Related for Dresden tab