Song name
# A B C D E F G H I J K L M N O P Q R S T U V W X Y Z

Leftover Crack - Born To Die tab

this is my first tab and its sounds rite so yea have fun...leftover crack rocks
h=hammer on


(distortion)
--------------------------------------------------------------------|x2
--------------------------------------------------------------------|
----7--9--7---------------------------------------------------------|
-7--7--9--7---------------------------------------------------------|
-7--5--7--5---------------------------------------------------------|
-5------------------------------------------------------------------|
then strum,,,youll figure it out when u listen to the song


----------------------------------------------------------------------------|
----------------------------------------------------------------------------|
-66667-66667--66667--666679--66667---66667--66667--679-679------------------|
----------------------------------------------------------------------------|
----------------------------------------------------------------------------|
----------------------------------------------------------------------------|

next part ska strum(mute on the way down then upstroke)
 x4   x4   x4   x4                                                ska part x4
--5----5----7----5----------------------------------------------------------|
--5----7----9----7----------------------------------------------------------|
--6----7----9----7----------------------------------------------------------|
--7----7----9----7----------------------------------------------------------|
----------------------------------------------------------------------------|
----------------------------------------------------------------------------|


----------------------------------------------------------------------------|
----------------------------------------------------------------------------|
--------999999--77---777--66--444------------999999--_11_-----565-----------|
--77777-999999--77---777--66--444-----777777-999999--_11_-----565-----------|
--77777-777777--55---555--44--222-----777777-777777--999999---454-----------|
--55555-------------------------------555555--------------------------------|


----------------------------------------------------------------------------|
----------------------------------------------------------------------------|
---------999999--77777--666--4444----------999999--_11_----11-9--7-6--------|
--77777--999999--77777--666--4444---77777--999999--_11_----11-9--7-6--------|
--77777--777777--55555--444--2222---77777--777777--999999--9--7--5-4--------|
--55555-----------------------------55555-----------------------------------|

 x4   x4   x4   x4                                                ska part x4
--5----5----7----5----------------------------------------------------------|
--5----7----9----7----------------------------------------------------------|
--6----7----9----7----------------------------------------------------------|
--7----7----9----7----------------------------------------------------------|
----------------------------------------------------------------------------|
----------------------------------------------------------------------------|


----------------------------------------------------------------------------|
----------------------------------------------------------------------------|
--------999999--77---777--66--444------------999999--_11_-----565-----------|
--77777-999999--77---777--66--444-----777777-999999--_11_-----565-----------|
--77777-777777--55---555--44--222-----777777-777777--999999---454-----------|
--55555-------------------------------555555--------------------------------|


----------------------------------------------------------------------------|
----------------------------------------------------------------------------|
---------999999--77777--666--4444----------999999--_11_----11-9--7-6--------|
--77777--999999--77777--666--4444---77777--999999--_11_----11-9--7-6--7-----|
--77777--777777--55555--444--2222---77777--777777--999999--9--7--5-4--7-----|
--55555-----------------------------55555-----------------------------5-----|

repeat softly twice
----------------------------------------------------------------------------|
----------------------------------------------------------------------------|
----7-9-7-------------------------------------------------------------------|
--7-7-9-7-------------------------------------------------------------------|
--7-5-7-5-------------------------------------------------------------------|
--5-------------------------------------------------------------------------|

----------------------------------------------------------------------------|
----------------------------------------------------------------------------|
-666679--666679---666679---11--9-7-9-7--666679--666679-7h9-7h9-7h9-7h9-7h9--|
----------------------------------------------------------------------------|
----------------------------------------------------------------------------|
----------------------------------------------------------------------------|


----------------------------------------------------------------------------|
----------------------------------------------------------------------------|
-7h9--7h9-7h9---------------------------------------------------------------|
----------------------------------------------------------------------------|
----------------------------------------------------------------------------|
----------------------------------------------------------------------------|


----------------------------------------------------------------------------|
----------------------------------------------------------------------------|
--------999999--77---777--66--444------------999999--_11_-----565-----------|
--77777-999999--77---777--66--444-----777777-999999--_11_-----565-----------|
--77777-777777--55---555--44--222-----777777-777777--999999---454-----------|
--55555-------------------------------555555--------------------------------|


----------------------------------------------------------------------------|
----------------------------------------------------------------------------|
---------999999--77777--666--4444----------999999--_11_----11-9--7-6--------|
--77777--999999--77777--666--4444---77777--999999--_11_----11-9--7-6--7-----|
--77777--777777--55555--444--2222---77777--777777--999999--9--7--5-4--7-----|
--55555-----------------------------55555-----------------------------5-----|


piano(gone to bed god is dead....)


repeat a number a times distored
--------------------------------------------------------------------|x2
--------------------------------------------------------------------|
----7--9--7---------------------------------------------------------|
-7--7--9--7---------------------------------------------------------|
-7--5--7--5---------------------------------------------------------|
-5------------------------------------------------------------------|

then
----------------------------------------------------------------------------|
----------------------------------------------------------------------------|
--------999999--77---777--66--444------------999999--_11_-----565-----------|
--77777-999999--77---777--66--444-----777777-999999--_11_-----565-----------|
--77777-777777--55---555--44--222-----777777-777777--999999---454-----------|
--55555-------------------------------555555--------------------------------|


----------------------------------------------------------------------------|
----------------------------------------------------------------------------|
---------999999--77777--666--4444----------999999--_11_----11-9--7-6--------|
--77777--999999--77777--666--4444---77777--999999--_11_----11-9--7-6--7-----|
--77777--777777--55555--444--2222---77777--777777--999999--9--7--5-4--7-----|
--55555-----------------------------55555-----------------------------5-----|

lots of feedback then finish with
----------------------------------------------------------------------------|
----------------------------------------------------------------------------|
----------------------------------------------------------------------------|
---7------------------------------------------------------------------------|
---7------------------------------------------------------------------------|
---5------------------------------------------------------------------------|

have fun
Tap to rate this tab
# A B C D E F G H I J K L M N O P Q R S T U V W X Y Z