Song name
# A B C D E F G H I J K L M N O P Q R S T U V W X Y Z

Leftover Crack - Burning In Water tab

First tab. let me know how it is.

e|---------------------------------|
B|---------------------------------|
G|-\\5---4---3---2---5---4---3---2-|
D|-\\5---4---3---2---5---4---3---2-|
A|-\\3---2---1---0---3---2---1---0-|
E|---------------------------------|


|------------------------------------------------------------------------------|
|------------------------------------------------------------------------------|
|-5-5-5-5-5-5-5-5-55-4-4-4-4-4-4-4-4-44-3-3-3-3-3-3-3-3-33-2-2-2-2-2-2-2-2-22--|    x2
|-5-5-5-5-5-5-5-5-55-4-4-4-4-4-4-4-4-44-3-3-3-3-3-3-3-3-33-2-2-2-2-2-2-2-2-22--|
|-3-3-3-3-3-3-3-3-33-2-2-2-2-2-2-2-2-22-1-1-1-1-1-1-1-1-11-0-0-0-0-0-0-0-0-00--|
|------------------------------------------------------------------------------|
    . .   . .   . ..   . .   . .   . ..   . .   . .   . ..   . .   . .   . ..

|--------------------------------------------------------------------|
|--------------------------------------------------------------------|
|-//9-9-9-9-9-9-9-9-1010101010101010-6-6-6-6-6-6-6-6-6-6-6-6-6-6-6-6-|
|--slowly slide up---------------------------------------------------|
|-//7-7-7-7-7-7-7-7-8-8-8-8-8-8-8-8--4-4-4-4-4-4-4-4-4-4-4-4-4-4-4-4-|
|--------------------------------------------------------------------|    x3 (third 
only hit the 6/4 chord 8 times)

    Repeat the verse once more, then the chorus.

   the last part of the song, this is played under the above part

|------------------------------------------------------------------|
|------------------------------------------------------------------|
|-9-9-9-9-9-9-9-9-101010101010101011111111111111111212121212121212-|
|------------------------------------------------------------------|
|-7-7-7-7-7-7-7-7-8-8-8-8-8-8-8-8-9-9-9-9-9-9-9-9-1010101010101010-|
|------------------------------------------------------------------|
Tap to rate this tab
# A B C D E F G H I J K L M N O P Q R S T U V W X Y Z