Song name
# A B C D E F G H I J K L M N O P Q R S T U V W X Y Z

Leftover Crack - Soon Well Be Dead tab

I enjoy this song very much, basically listen to it when you read this and you'll get it down.

E A G B e

Chords

       G   Dsus4    Em    Cadd9

e |----3-----3------3-------3--|
B |----3-----3------3-------3--|
G |----0-----2------0-------0--|
D |----0-----0------2-------2--|
A |----2------------2-------3--|
E |----3------------0----------|


For all of the song, these are the chords used until the break down, very simple, and repetitive.


These are the tabs for the breakdown. I've added the chords in for those of you who 
actually want to play the chords for the breakdown instead.



     G     Em7     G     Em7     G     Em7       A

e |----------------------------------------------------|
B |----------------------------------------------------|
G |----------------------------------------------------|
D |--------------------------------------------7-7-7---|
A |--2---2-2-2-2---2---2-2-2-2---2---2-2-2-2---7-7-7---|
E |--3---0-0-0-0---3---0-0-0-0---3---0-0-0-0---5-5-5---|



     G     Em7     G     Em7     G     Em7       F

e |----------------------------------------------------|
B |----------------------------------------------------|
G |----------------------------------------------------|
D |--------------------------------------------3-3-3---|
A |--2---2-2-2-2---2---2-2-2-2---2---2-2-2-2---3-3-3---|
E |--3---0-0-0-0---3---0-0-0-0---3---0-0-0-0---1-1-1---|



     G     Em7     G     Em7     G     Em7       A

e |----------------------------------------------------|
B |----------------------------------------------------|
G |----------------------------------------------------|
D |--------------------------------------------7-7-7---|
A |--2---2-2-2-2---2---2-2-2-2---2---2-2-2-2---7-7-7---|
E |--3---0-0-0-0---3---0-0-0-0---3---0-0-0-0---5-5-5---|



       B   Cadd9  Dsus4

e |----------------------|
B |----------------------|
G |----4~----5~----7~----|
D |----4~----5~----7~----|
A |----2~----3~----5~----|
E |----------------------|


And at the end of the song, after the final breakdown, you strum G repeatedly really 
fast. Like a mexican guitarist at the end of his song. Just kidding. But you get the point.

Thank you for reading the tab.
Tap to rate this tab
 
# A B C D E F G H I J K L M N O P Q R S T U V W X Y Z