Song name
# A B C D E F G H I J K L M N O P Q R S T U V W X Y Z

Leftover Crack - Nobody Is Free tab

Band - Leftover Crack
Song - Nobody Is Free
Album - Baby Jesus, Sliced Up In The Manger

Tuning: Standard

Tabbed By: Tyler Freear (SumFX)

Great Song By The Crack Which Shows Their Black Metal Influences

Intro
(Tremolo Pick With Light Palm Mute)
|----------------|---------------|---------------|----------------|
|----------------|---------------|---------------|----------------|
|----------------|---------------|---------------|----------------|
|----------------|----444-555-444|----666-777-666|----444-555-444-|
|----444-555-444-|-55------------|-77------------|-55-------------|
|-55-------------|---------------|---------------|----------------|

|----------------|---------------|---------------|----------------|
|----------------|---------------|---------------|----------------|
|----------------|-7-------------|-9-------------|-7--------------|
|-7--------------|-7-------------|-9-------------|-7--------------|
|-7--------------|-5-------------|-7-------------|-5--------------|
|-5--------------|---------------|---------------|----------------|


Verse 
(Tremolo Pick With Light Palm Mute, Notice The Variation On The 3rd Part)
|----------------|---------------|---------------|----------------|
|----------------|---------------|---------------|----------------|
|----------------|---------------|---------------|----------------|
|----------------|----444-555-444|----666-777-666|----444-555-444-|
|----444-555-444-|-55------------|-77------------|-55-------------|
|-55-------------|---------------|---------------|----------------|

|----------------|---------------|---------------|----------------|
|----------------|---------------|---------------|----------------|
|----------------|---------------|---------------|----------------|
|----------------|----444-555-444|----666-777-666|----444-555-444-|
|----444-555-444-|-55------------|-77------------|-55-------------|
|-55-------------|---------------|---------------|----------------|

|---------------|---------------|---------------|---------------|
|---------------|---------------|---------------|---------------|
|---------------|---------------|---------------|---------------|
|---------------|----4-5-77-5-4-|----6-7-99-7-6-|----4-5-77-5-4-|
|----4-5-77-5-4-|-55------------|-77------------|-55------------|
|-55------------|---------------|---------------|---------------|

|----------------|---------------|---------------|----------------|
|----------------|---------------|---------------|----------------|
|----------------|---------------|---------------|----------------|
|----------------|----444-555-444|----666-777-666|----444-555-444-|
|----444-555-444-|-55------------|-77------------|-55-------------|
|-55-------------|---------------|---------------|----------------|

Chorus (Lead)
|---------------17---------------17------------|
|-1515-19--1515----1515-19--1515----1515-19-17-|
|----------------------------------------------|
|----------------------------------------------|
|----------------------------------------------|
|----------------------------------------------|

|---------------17---------------17------------|
|-1515-19--1515----1515-19--1515----1515-20-19-|
|----------------------------------------------|
|----------------------------------------------|
|----------------------------------------------|
|----------------------------------------------|

Chorus (Rhythm)
|------------------------------|
|------------------------------|
|------------------------------|
|-77777777-99999999-55555555---|
|-77777777-99999999-55555555---|
|-55555555-77777777-33333333---|

Structure
Intro
Verse
Chorus
Intro
Verse
Chorus
Intro

And Thats That!

Keep On Rockin' Dat Crack Rock Steady Beat!
Tap to rate this tab
 
# A B C D E F G H I J K L M N O P Q R S T U V W X Y Z