Song name
# A B C D E F G H I J K L M N O P Q R S T U V W X Y Z

Leftover Crack - Muppet Nambla tab

Band - Leftover Crack
Song - Muppet Namblin' & Muppet N.A.M.B.L.A
Album - Rock The 40 oz.

Tabbed By: Tyler Freear (SumFX)

Great Tracks Here, Pretty Much The Same Songs But Played Different.

Muppet Nambla
Verse
|-------------------|
|-------------------|
|-----666-777-999---|
|-777-666-777-999---|
|-777-444-555-777---|
|-555---------------|

Chorus
|---------------------------------|
|---------------------5---5---5---|
|-7777-7-7777-7-6666----6---6---6-|
|-7777-7-7777-7-6666--------------|
|-5555-5-5555-5-4444--------------|
|---------------------------------|
  ....   ....   ....

Post-Chorus
|--------------------------------|
|--------------------------------|
|-777-999-----666-777-999--------|
|-777-999-777-666-777-999-7-7-7--|
|-555-777-777-444-555-777-7-7-7--|
|---------555-------------5-5-5--|

Post Chorus 2
|-----------------------------------------------|
|-----------------------------------------------|
|-777-999-----666-777-999----------------111111-|
|-777-999-777-666-777-999-777/999-111111-111111-|
|-555-777-777-444-555-777-777/999-111111-9-9-9--|
|---------555-------------555/777-9-9-9---------|

|-------------------|
|-------------------|
|-777777-999999-----|
|-777777-999999-----|
|-555555-777777-----|
|-------------------|

Verse 2
|--------------------|
|--------------------|
|-----888-999-111111-|
|-999-888-999-111111-|
|-999-666-777-9-9-9--|
|-777----------------|

Chorus 2
|-------------------------------|
|---------------------7--7--7---|
|-9999-9-9999-9--8888--8--8--8--|
|-9999-9-9999-9--8888-----------|
|-7777-7-7777-7--6666-----------|
|-------------------------------|

Post Chorus 2
|-------------------------------------|
|-------------------------------------|
|-999-111111-----888-999-111111-------|
|-999-111111-999-888-999-111111-9-9-9-|
|-777-9-9-9--999-666-777-9-9-9--9-9-9-|
|------------777----------------7-7-7-|

Structure
Verse       x4
Chorus      x1
Post Chorus x1
Verse       x4
Chorus      x1
Post Chorus 2
Verse 2     x4
Chorus 2    x1
Post Chorus x1
B5
-----------------------------------------------------------------------------
Muppet N.A.M.B.L.A (Featuring The Distillers)

Verse
|--------------------|
|--------------------|
|-----888-999-111111-|
|-999-888-999-111111-|
|-999-666-777-9-9-9--|
|-777----------------|

Chorus (Rhythm)
|------------------6---6---6----|
|------------------7---7---7----|
|-999-9-999-9--888-8---8---8----|
|-999-9-999-9--888-8---8---8----|
|-777-7-777-7--666-6---6---6----|
|-------------------------------|

Chorus (Lead)
|-------------------|
|-------------------|
|-9---/11--/8-------|
|-x----x----x-------|
|-7---/9---/6-------|
|-------------------|

Post Chorus
|-------------------------------------|
|-------------------------------------|
|-999-111111-----888-999-111111-------|
|-999-111111-999-888-999-111111-----9-|
|-777-9-9-9--999-666-777-9-9-9----9---|
|------------777----------------7-----|

Post Chorus 2 (Rhythm)
|-------------------------------------|
|-------------------------------------|
|-999-111111-----888-999-111111-------|
|-999-111111-999-888-999-111111-999---|
|-777-9-9-9--999-666-777-9-9-9--999---|
|------------777----------------777---|
                               (Lead)
                              |------|
                              |------|
                              |------|
                              |-9----|
                              |-x----|
                              |-7----|

|---------------------------|
|---------------------------|
|-------------------131313--|
|-999-111111-131313-131313--|
|-999-111111-131313-111111--|
|-777-9-9-9--111111---------|

|------------------------|
|------------------------|
|-99999999-111111111111--|
|-99999999-111111111111--|
|-77777777-9-9-9-9-9-9---|
|------------------------|

Verse 2
|-----------------------------|
|-----------------------------|
|--------101010-111111-131313-|
|-111111-101010-111111-131313-|
|-111111-8-8-8--9-9-9--111111-|
|-9-9-9-----------------------|

Chorus 2 (Lead)
|-------------------|
|-------------------|
|-11---/13----/10---|
|-------------------|
|-9----/11----/8----|
|-------------------|

Chorus 2 (Rhythm)
|------------------------------------------|
|------------------------------------------|
|-111111-11-111111-11-101010-10-101010-10--|
|-111111-11-111111-11-101010-10-101010-10--|
|-9-9-9--9--9-9-9--9--8-8-8--8--8-8-8--8---|
|------------------------------------------|
  . . .     . . .     . . .     . . .

Post Chorus 3
|---------------------------------------------------|
|---------------------------------------------------|
|-111111-131313--------101010-111111-131313---------|
|-111111-131313-111111-101010-111111-131313------11-|
|-9-9-9--111111-111111-8-8-8--9-9-9--111111---11----|
|---------------9-9-9-----------------------9-------|

C#5
|-------------------|
|-------------------|
|-------------------|
|-11----------------|
|-11----------------|
|-9-----------------|

Structure
Verse        x4
Chorus       x1
Post Chorus  x1
Verse        x4
Chorus       x1
Post Chorus 2
Verse 2      x4
Chorus 2     x1
Post Chorus3 x1
C#5

Enjoy These Lovely Tracks & 
Chill To That !CRACK ROCK STEADY BEAT!
Tap to rate this tab
 
# A B C D E F G H I J K L M N O P Q R S T U V W X Y Z