Song name
# A B C D E F G H I J K L M N O P Q R S T U V W X Y Z

Leftover Crack - Nc tab

Band - Leftover Crack
Song - NC
Album - Medicore Generica

Tabbed By: Tyler Freear (SumFX)

Tuning: Standard (E A D G B E)

Simple Black Metal-esque Type Song By The Crack!
It Checks In At About 0.59!

Intro
|----------------------------------------------|
|----------------------------------------------|
|-8888-------8888-------8888-------8888--------|
|-8888-7777--8888-7777--8888-7777--8888-7777---|
|-6666-7777--6666-7777--6666-7777--6666-7777---|
|------5555-------5555-------5555-------5555---|

Riff 1
|----------------------------------|
|----------------------------------|
|-8888-------8888-------8888-9999--|
|-8888-7777--8888-7777--8888-9999--|
|-6666-7777--6666-7777--6666-7777--|
|------5555-------5555-------------|

|----------------------------------------------|
|----------------------------------------------|
|-8888-------8888-------8888-------8888-9999---|
|-8888-7777--8888-7777--8888-7777--8888-9999---|
|-6666-7777--6666-7777--6666-7777--6666-7777---|
|------5555-------5555-------5555--------------|

|---------------------------|
|---------------------------|
|-888------8-8-8-8-8-8-8-8--|
|-888-777--8-8-8-8-8-8-8-8--|
|-666-777--6-6-6-6-6-6-6-6--|
|-----555-------------------|

Riff 2
|----------------------------------|
|----------------------------------|
|-8888-------8888-------8888-9999--|
|-8888-7777--8888-7777--8888-9999--|
|-6666-7777--6666-7777--6666-7777--|
|------5555-------5555-------------|

|--------------------|
|--------------------|
|-888------8-8-8-8---|
|-888-777--8-8-8-8---|
|-666-777--6-6-6-6---|
|-----555------------|

Riff 3
|----------------------------------|
|----------------------------------|
|-8888-------8888-------8888-9999--|
|-8888-7777--8888-7777--8888-9999--|
|-6666-7777--6666-7777--6666-7777--|
|------5555-------5555-------------|

|---------------------|
|---------------------|
|-888------8-8-8-8-8--|
|-888-777--8-8-8-8-8--|
|-666-777--6-6-6-6-6--|
|-----555-------------|

Intro
Riff 1
Riff 2
RIff 1
Riff 3
Intro
Riff 1
Riff 2

And There Ya' Have It!
Rate & Comments Please
Tap to rate this tab
 
# A B C D E F G H I J K L M N O P Q R S T U V W X Y Z