Leftover Crack - Rock The 40 Oz tab

Band - Leftover Crack
Album: Rock The 40 oz.
Tabbed By: Tyler Freear (SumFX)
Tuning: Standard (E A D G B E)

Tracklist:
1.Intro
2.Jesus Has A Place For Me (Rock The 40 Oz.)
3.Nazi White Trash 
4.S.T.I (Stop The Insanity)
5.Muppet Namblin'
6.The Good, The Bad, And The Leftover Crack
7.Outro

Bonus Tracks
8.Crack City Rockers
9.Muppet N.A.M.B.L.A (Featuring The Distillers)
10.Atheist Anthem (4-Track Demo)
11.Nobody Is Free (4-Track Demo)
12.Rock The 4-Track Oz.
13.Gay Rude Boys Unite (Instrumental '99) & Apple Pie & Police State 

Well Hello Again!

This Is The Whole 'Rock The 40 oz.' Album By Leftover Crack!
Really Great Release From A Fantastic Band, Most Of These Songs
Were Re-Recorded & Used On The Crack Rockin' Medicore Generica Album!

.=Palm Mute
/\=Slides
h=Hammer On
p=Pull Off
v=Vibrato
-----------------------------------------------------------------------------
-----------------------------------------------------------------------------
                               Intro

No Guitar Is In This Track, Funny Intro Though :)

-----------------------------------------------------------------------------
-----------------------------------------------------------------------------
                   Jesus Has A Place For Me (Rock The 40 Oz.)

Rhythm Guitar
Intro
|------------------------|
|------------------------|
|-99999-55555------------|
|-99999-55555-55555555---|
|-77777-33333-55555555---|
|-------------33333333---|

Verse
|-------x3---------------|-----------------------------|
|------------------------|-----------------------------|
|-99999-55555------------|-99999-55555-7-777-777-5-4---|
|-99999-55555-55555555---|-99999-55555-7-777-777-5-4---|
|-77777-33333-55555555---|-77777-33333-5-555-555-3-2---|
|-------------33333333---|-----------------------------|
  ..... ..... ........     ..... .....

Pre Chorus
|-------------------------------------------------|
|-------------------------------------------------|
|-------77777-4444444444-------55555-4444444444---|
|-55555-77777-4444444444-55555-55555-4444444444---|
|-55555-55555-2222222222-55555-33333-2222222222---|
|-33333------------------33333--------------------|

Chorus
|---------------------------------------|
|---------------------------------------|
|-5-5555-5-5555-5-55-4-4444-4-4444-4-44-|
|-5-5555-5-5555-5-55-4-4444-4-4444-4-44-|
|-3-3333-3-3333-3-33-2-2222-2-2222-2-22-|
|---------------------------------------|
    ....   ....   ..   ....   ....   ..

|---------------------------------------|
|---------------------------------------|
|-5-5555-5-5555-5-55-4-4444-5-55-7-77---|
|-5-5555-5-5555-5-55-4-4444-5-55-7-77---|
|-3-3333-3-3333-3-33-2-2222-3-33-5-55---|
|---------------------------------------|
    ....   ....   ..   ....   ..   ..

Outro
|--------------|---X4---------|
|--------------|--------------|
|-44444-555-77-|--------------|
|-44444-555-77-|-444444555777-|
|-22222-333-55-|-222222333555-|
|--------------|--------------|

 G5       G5
|------------|
|------------|
|------------|
|-5-------5--|
|-5-------5--|
|-3-------3--|

-----------------------------------------------------------------------------
Lead Guitar

Intro
0.3
|-------------------|
|-------------------|
|-9-----------------|
|-------------------|
|-7-----------------|
|-------------------|

Intro 2
0.6
|------------------------------------|
|------------------------------------|
|-99999-1212-999-121212121212121212--|
|-XXXXX-X-X--XXX-X-X-X-X-X-X-X-X-X---|
|-77777-1010-777-101010101010101010--|
|------------------------------------|

|------------------------------------|
|------------------------------------|
|-99999-1212-999-12121212-1414-1616--|
|-XXXXX-X-X--XXX-X-X-X-X--X-X--X-X---|
|-77777-1010-777-10101010-1212-1414--|
|------------------------------------|

Verse
|------------------------------------------------------------|
|----------------121212121212-151515151515-13131313-12h13p12-|
|-12121212121212---------------------------------------------|
|------------------------------------------------------------|
|------------------------------------------------------------|
|-------------------x3---------------------------------------|
  ..........................................................

|--------------------------------------------------------1414-15-|
|----------------121212121212-13131313-15151515-17171717---------|
|-12121212121212-------------------------------------------------|
|----------------------------------------------------------------|
|----------------------------------------------------------------|
|----------------------------------------------------------------|
  ..........................

Pre Chorus
0.34 & 1.08
|------------------------------------------|
|------------------------------------------|
|-12121212-7777-4444---12121212-5555-4444--|
|-x-x-x-x--xxxx-xxxx---x-x-x-x--xxxx-xxxx--|
|-10101010-5555-2222---10101010-3333-2222--|
|------------------------------------------|

Pre Chorus 2
1.36 & 1.57
|----------------------------------|
|----12----15----12----15----13----|
|-12----12----12----12----12----12-|
|----------------------------------|
|----------------------------------|
|----------------------------------|


Structure
Intro
Verse
Pre Chorus
Chorus
Verse
Pre Chorus
Chorus
Verse
Pre Chorus 2
Chorus
Pre Chorus 2
Chorus
Outro
G5 
-----------------------------------------------------------------------------
-----------------------------------------------------------------------------
                            Nazi White Trash

Intro
Guitar 1
|-------------------------------------------------------------------|
|-------------------------------------------------------------------|
|-------------------------------------------------------------------|
|-------------------------------------------------------------------|
|---7--7--7--7--7--7--7--0----7--7--7--7---7--7--7--7---7--7--7--7--|
|-0--0--0--0--0--0--0--0----7--7--7--7---9--9--9--9---7--7--7--7----|

|-------------------------------------------------------|
|-------------------------------------------------------|
|-------------------------------------------------------|
|-------------------------------------------------------|
|---7--7--7--7----7--7--7--7---7--7--7--7---7--7--7--7--|
|-0--0--0--0----7--7--7--7---9--9--9--9---7--7--7--7----|

Guitar 2
|-------------------------------------------------------|
|-------------------------------------------------------|
|---------------4------------6------------4-------------|
|-2-------------4------------6------------4-------------|
|-2-------------2------------4------------2-------------|
|-0-----------------------------------------------------|

Guitar 3 Overdub
|--------------------------------------------------------------11-12--|
|---12------12------12------12------12------12------12------12--------|
|-9----9--9----9--9----9--9----9--9----9--9----9--9----9--9-----------|
|---------------------------------------------------------------------|
|---------------------------------------------------------------------|
|---------------------------------------------------------------------|
  . .  .  . .  .  . .  .  . .  .  . .  .  . .  .  . .  .  .  

Pre Verse
|------------------------------|
|------------------------------|
|--------444444-666666-444444--|
|-222222-444444-666666-444444--|
|-222222-222222-444444-222222--|
|-000000-----------------------|

Verse 1
Clean Tone, Ska Rhythm
|------7---------7----|
|-9----7----6----7----|
|-9----8----6----8----|
|-9----9----6----9----|
|-7----9----4----9----|
|------7---------7----|

Verse 2      
Clean Tone, Ska Rhythm                Dist.
|------7---------5----|------7---------------|
|-9----7----6----5----|-9----7----6----------|
|-9----8----6----6----|-9----8----6----------|
|-9----9----6----7----|-9----9----6----7777--|
|-7----9----4----7----|-7----9----4----7777--|
|------7---------5----|------7---------5555--|

Chorus
|---------------------|
|---------------------|
|-----------6666------|
|-2222-6666-6666-7777-|
|-2222-6666-4444-7777-|
|-0000-4444------5555-|

Verse 3
Clean Tone, Ska Rhythm
|------7---------5----|------7---------5555--|
|-9----7----6----5----|-9----7----6----5555--|
|-9----8----6----6----|-9----8----6----6666--|
|-9----9----6----7----|-9----9----6----7777--|
|-7----9----4----7----|-7----9----4----7777--|
|------7---------5----|------7---------5555--|

Chorus 3
|----------------------------|
|----------------------------|
|-99999-------666666---------|
|-99999-66666-666666-777777--|
|-77777-66666-444444-777777--|
|-------44444--------555555--|
E5
|--------------------|
|--------------------|
|--------------------|
|-2------------------|
|-2------------------|
|-0------------------|

Bridge
Clean Tone, 
1st Guitar Plays The Arpegios & 2nd Guitar Plays Chords Shown
 E               G#              C#m          A
|-------------------------------------------------------5--|
|-------9----------------4-------------5--------------5----|
|-----9---9------------5---5---------6---6----------6------|
|---9-------9--------6-------6-----6-------6------7--------|
|-7-----------7----6-----------6-4--------------7----------|
|----------------4----------------------------5------------|

  E             G#         C#m              A         E
|-----------------------4----------4--------55555555-------|
|-------9---------------4--------5---5------55555555--9----|
|-----9---9-----------5--------6-------6----66666666--9----|
|---9-------9-------6--------6-----------6--77777777--9----|
|-7-----------7---6--------4----------------77777777--7----|
|---------------4---------------------------55555555-------|

Bridge 2
|------------------|
|------------------|
|-999-----666------|
|-999-666-666-777--|
|-777-666-444-777--|
|-----444-----555--|

Outro Lead
|----------------------12------12-----------------------12-----------|
|---12------12------12------12-------12------12------12------12------|
|-9----9--9----9--9-------9--------9----9--9----9--9-------9------9/-|
|--------------------------------------------------------------------|
|--------------------------------------------------------------------|
|--------------------------------------------------------------------|
  . . .   . .  .  . . .   . .  .   . .  .  . .  .  . .  .  . .    

Structure
Intro
Pre Verse
Verse 1
Verse 2
Chorus
Verse 1
Verse 3
Chorus 2
E5
Bridge
Bridge 2
Chorus 3
E5
Intro w/Outro Lead
E5

---------------------------------------------------------------------------------------
                        Stop The Insanity (S.T.I)

Verse
|-------------------|
|-------------------|
|-------------999---|
|-666-777-999-999---|
|-666-777-999-777---|
|-444-555-777-------|

Chorus
|--------------------|
|--------------------|
|--------------------|
|-222222-2-66-77-----|
|-222222-2-66-77-----|
|-000000-0-44-55-----|
  ......

Bridge
|-------------------|
|-------------------|
|-------------------|
|-------------------|
|-2222222-6666-7777-|
|-0000000-4444-5555-|
  ....... .... ....

E5
|--------------------|
|--------------------|
|--------------------|
|-2------------------|
|-2------------------|
|-0------------------|

Structure
Verse
Chorus
Verse
Chorus
Verse
Chorus
Bridge
E5
-----------------------------------------------------------------------------
-----------------------------------------------------------------------------
                             Muppet Namblin'

Verse
|-------------------|
|-------------------|
|-----666-777-999---|
|-777-666-777-999---|
|-777-444-555-777---|
|-555---------------|

Chorus
|---------------------------------|
|---------------------5---5---5---|
|-7777-7-7777-7-6666----6---6---6-|
|-7777-7-7777-7-6666--------------|
|-5555-5-5555-5-4444--------------|
|---------------------------------|
  ....   ....   ....

Post-Chorus
|--------------------------------|
|--------------------------------|
|-777-999-----666-777-999--------|
|-777-999-777-666-777-999-7-7-7--|
|-555-777-777-444-555-777-7-7-7--|
|---------555-------------5-5-5--|

Post Chorus 2
|-----------------------------------------------|
|-----------------------------------------------|
|-777-999-----666-777-999----------------111111-|
|-777-999-777-666-777-999-777/999-111111-111111-|
|-555-777-777-444-555-777-777/999-111111-9-9-9--|
|---------555-------------555/777-9-9-9---------|

|-------------------|
|-------------------|
|-777777-999999-----|
|-777777-999999-----|
|-555555-777777-----|
|-------------------|

Verse 2
|--------------------|
|--------------------|
|-----888-999-111111-|
|-999-888-999-111111-|
|-999-666-777-9-9-9--|
|-777----------------|

Chorus 2
|-------------------------------|
|---------------------7--7--7---|
|-9999-9-9999-9--8888--8--8--8--|
|-9999-9-9999-9--8888-----------|
|-7777-7-7777-7--6666-----------|
|-------------------------------|

Post Chorus 2
|-------------------------------------|
|-------------------------------------|
|-999-111111-----888-999-111111-------|
|-999-111111-999-888-999-111111-9-9-9-|
|-777-9-9-9--999-666-777-9-9-9--9-9-9-|
|------------777----------------7-7-7-|

Structure
Verse       x4
Chorus      x1
Post Chorus x1
Verse       x4
Chorus      x1
Post Chorus 2
Verse 2     x4
Chorus 2    x1
Post Chorus x1
B5
----------------------------------------------------------------------------------------------
                 The Good, The Bad And The Leftover Crack

Main Riff
|--------------------------------------------------------------|
|--------------------------------------------------------------|
|--------------------------------------------------------------|
|--------------------------------------------------------------|
|--------------------------------------------------------------|
|-22-55-22-55-22-55-22-55-22-55-22-55-22-55-22-55-22-55-22-55--|

Chorus
|-----------------------|
|-----------------------|
|-777777777--666666666--|
|-777777777--666666666--|
|-555555555--444444444--|
|-----------------------|

|----------------------------------|
|----------------------------------|
|-777777777------------------------|
|-777777777--11111111-1111997766---|
|-555555555--11111111-1111997766---|
|------------9-9-9-9--9-9-775544---|

Solo 1
|----------------------------------------|
|----------------------------------------|
|-12/14-14-14-14-14--14b--14-14-14-14-14-|
|----------------------------------------|
|----------------------------------------|
|----------------------------------------|

|----17-----------|--------------------------|
|-19----19-17-----|-----19-------------------|
|-------------18--|-21b----21b-21v-21-21-21--|
|-----------------|--------------------------|
|-----------------|--------------------------|
|-----------------|--------------------------|

|-------------------19b-19b-17---------------|
|-19-17----17-19-17------------19-17----17---|
|-------18---------------------------18---18-|
|--------------------------------------------|
|--------------------------------------------|
|--------------------------------------------|

|---------------------------------------|
|---------------------------------------|
|-14--16b-16b-16b-16b--16b-16b-16b-16b--|
|---------------------------------------|
|---------------------------------------|
|---------------------------------------|

|----------17-14----------|
|-14-17-14-------17-14----|
|-------------------------|
|-------------------------|
|-------------------------|
|-------------------------|

|------------17-14----|-17b-17k-17k-17k-17k-17k-17k-|
|-1414-17-14-------17-|-----------------------------|
|---------------------|-----------------------------|
|---------------------|-----------------------------|
|---------------------|-----------------------------|
|---------------------|-----------------------------|

Main Riff Variation
|-------------------------------------------------------|
|-------------------------------------------------------|
|-------------------------------------------------------|
|-44-77-44-77-44-77-44-77-44-77-44-77-44-77-44-77-44-77-|
|-------------------------------------------------------|
|-------------------------------------------------------|

Solo 2
|-14141414141414141414141414---|
|-14141414141414141414141414---|
|------------------------------|
|------------------------------|
|------------------------------|
|------------------------------|

F#5
|----|
|----|
|----|
|-4--|
|-4--|
|-2--|

Structure
Main Riff
Chorus
Main Riff
Chorus
Solo 1
Main Riff Variation
Solo 2
Chorus
Main Riff
F#5
-----------------------------------------------------------------------------
-----------------------------------------------------------------------------
                                 Outro
Intro
|--------------|
|-14141414-15--|
|--------------|
|--------------|
|---x16--------|
|--------------|
   . . . . .
Solo
|-17/19---19-17--14-15-17-15-14----------------14-15-17-|
|-------------------------------15-15-14-15-17----------|
|-------------------------------------------------------|
|-------------------------------------------------------|
|-------------------------------------------------------|
|-------------------------------------------------------|

|-17/19-19-17-15-14---19-17-15-14-14-15-14-15-14------|
|-----------------------------------------------------|
|-----------------------------------------------------|
|-----------------------------------------------------|
|-----------------------------------------------------|
|-----------------------------------------------------|

|-14-15-17-19-17-15--14-15-14-15-17-19-17-15--------|
|--------------------------------------------15-----|
|---------------------------------------------------|
|---------------------------------------------------|
|---------------------------------------------------|
|---------------------------------------------------|

Rhythm Behind Solo
|------------------------------|
|------------------------------|
|------------------------------|
|-----0-------------0----------|
|---5-----5-------4-----4------|
|-3-----3---3---2-----2---2----|

G5
|--------|
|--------|
|--------|
|-5------|
|-5------|
|-3------|

Structure
Intro
Solo w/Rhythm
G5
-----------------------------------------------------------------------------
-----------------------------------------------------------------------------
                            Crack City Rockers
Intro
|-----6---8----3---|
|-8---6---8----3---|
|-8---7---9----4---|
|-8---8---10---5---|
|-6---8---10---5---|
|-----6---8----3---|

Intro Octaves
0.9
|------------------------|
|------------------------|
|-8--10--10--13--13--15--|
|-x--x---x---x---x---x---|
|-6--8---8---11--11--13--|
|------------------------|

D#5
|-------------|
|-------------|
|-88888888----|
|-88888888----|
|-66666666----|
|-------------|


Intro 2 Rhythm
0.17
|----------------------------------------------------|
|----------------------------------------------------|
|-888888-777777-5555555--------------88888-----------|
|-xxxxxx-xxxxxx-xxxxxxx-555555-66666-xxxxx-888888888-|
|-666666-555555-3333333-xxxxxx-xxxxx-66666-xxxxxxxxx-|
|-----------------------333333-44444-------666666666-|

|----------------------------------------------------------|
|----------------------------------------------------------|
|-888888-777777-5555555--------------88888-----------55-77-|
|-xxxxxx-xxxxxx-xxxxxxx-555555-66666-xxxxx-888888-88-55-77-|
|-666666-555555-3333333-xxxxxx-xxxxx-66666-xxxxxx-88-33-55-|
|-----------------------333333-44444-------666666-66-------|

Intro 2
0.17
|------------------------------|--------------------------------------------|
|------------------------------|--------------------------------------------|
|-8888877777171717171212121212-|-101010121212131313131315151515151515151515-|
|-xxxxxxxxxxx-x-x-x-x-x-x-x-x--|-x-x-x-x-x-x-x-x-x-x-x-x-x-x-x-x-x-x-x-x-x--|
|-6666655555151515151010101010-|-8-8-8-101010111111111113131313131313131313-|
|------------------------------|--------------------------------------------|

|-------------------------------------------------|
|-------------------------------------------------|
|-2020202020-151515151515-1717171717-1212121212---|
|-x-x-x-x-x--x-x-x-x-x-x--x-x-x-x-x--x-x-x-x-x----|
|-1818181818-131313131313-1515151515-1010101010---|
|-------------------------------------------------|

|-----------------------------------------------|
|-----------------------------------------------|
|-101010-121212-1313131313-15151515151515151515-|
|-x-x-x--x-x-x--x-x-x-x-x--x-x-x-x-x-x-x-x-x-x--|
|-8-8-8--101010-1111111111-13131313131313131313-|
|-----------------------------------------------|

Verse
X2
|------6---4---8----6---|
|--8---6---4---8----6---|
|--8---7---5---8----7---|
|--8---8---6---10---8---|
|--6---8---6---10---8---|
|------6---4---8----6---|

|-----6---8---3---4---6------|
|-8---6---8---3---4---6---8--|
|-8---7---8---4---5---7---8--|
|-8---8---10--5---6---8---8--|
|-6---8---10--5---6---8---6--|
|-----6---8---3---4---6------|

Verse Lead
|-------------------|
|-----------7NH-----|
|------7NH----------|
|-7NH---------------|
|-------------------|
|-------------------|

Verse 2 Lead Octaves
1.26 & 2.07
|---------------------------------------|
|---------------------------------------|
|-3/8--8\7--7/5--5-------------8--8-----|
|-x-x--x-x--x-x--x--8--8/6--6--x--x--8--|
|-1/6--6\5--5/3--3--x--x-x--x--6--6--x--|
|-------------------6--6/4--4--------6--|

Chorus Rhythm
x2
|-----------------------------------------|
|-----------------------------------------|
|-88888888--------------------------------|
|-88888888-55555555-6666-5555-6666-8888---|
|-66666666-55555555-6666-5555-6666-8888---|
|----------33333333-4444-3333-4444-6666---|

|--------------------------------------------------------------------|
|--------------------------------------------------------------------|
|-88888888----------55555555-----------------------------------55-77-|
|-88888888-88888888-55555555-55555555-333-555-666666-888888-88-55-77-|
|-66666666-88888888-33333333-55555555-333-555-666666-888888-88-33-55-|
|----------66666666----------33333333-111-333-444444-666666-66-------|

Chorus Lead
|----------------------------------------------------------------|
|----------------------------------------------------------------|
|-88888888-1212121212121212-13131313-12121212-1515151515151515---|
|-xxxxxxxx-x-x-x-x-x-x-x-x--x-x-x-x--x-x-x-x--x-x-x-x-x-x-x-x----|
|-66666666-1010101010101010-11111111-10101010-1313131313131313---|
|----------------------------------------------------------------|

|----------------------------------------------------------------|
|----------------------------------------------------------------|
|-88888888-1212121212121212-13131313-12121212-1717171717171717---|
|-xxxxxxxx-x-x-x-x-x-x-x-x--x-x-x-x--x-x-x-x--x-x-x-x-x-x-x-x----|
|-66666666-1010101010101010-11111111-10101010-1515151515151515---|
|----------------------------------------------------------------|

|-------------------------------------------------|
|-------------------------------------------------|
|-2020202020-151515151515-1717171717-1212121212---|
|-x-x-x-x-x--x-x-x-x-x-x--x-x-x-x-x--x-x-x-x-x----|
|-1818181818-131313131313-1515151515-1010101010---|
|-------------------------------------------------|

|-----------------------------------------------|
|-----------------------------------------------|
|-101010-121212-1313131313-15151515151515151515-|
|-x-x-x--x-x-x--x-x-x-x-x--x-x-x-x-x-x-x-x-x-x--|
|-8-8-8--101010-1111111111-13131313131313131313-|
|-----------------------------------------------|

Solo
|-----------------------------------------------------|
|-16161616-16-15----15-16-16/18--18-16-15-15h16p15\13-|
|----------------17-----------------------------------|
|-----------------------------------------------------|
|-----------------------------------------------------|
|-----------------------------------------------------|

|----------------------------|--------------------------------------|
|-15-16-15-13----13----------|--------------------------------------|
|-------------15----15-13-12-|-12h13p12----12-----------------------|
|----------------------------|----------15----15-13-12-12h13-121212-|
|----------------------------|--------------------------------------|
|----------------------------|--------------------------------------|

|-------------------------------|
|-------------------------------|
|----------12-12h13-12-13-13/15-|
|-12-13-15----------------------|
|-------------------------------|
|-------------------------------|
Structure
Intro
D#5
Intro 2 
Verse
D#5
Chorus
Verse
D#5
Chorus
Solo
Verse
Chorus
-----------------------------------------------------------------------------
-----------------------------------------------------------------------------
              Muppet N.A.M.B.L.A (Featuring The Distillers)

Verse
|--------------------|
|--------------------|
|-----888-999-111111-|
|-999-888-999-111111-|
|-999-666-777-9-9-9--|
|-777----------------|

Chorus (Rhythm)
|------------------6---6---6----|
|------------------7---7---7----|
|-999-9-999-9--888-8---8---8----|
|-999-9-999-9--888-8---8---8----|
|-777-7-777-7--666-6---6---6----|
|-------------------------------|

Chorus (Lead)
|-------------------|
|-------------------|
|-9---/11--/8-------|
|-x----x----x-------|
|-7---/9---/6-------|
|-------------------|

Post Chorus
|-------------------------------------|
|-------------------------------------|
|-999-111111-----888-999-111111-------|
|-999-111111-999-888-999-111111-----9-|
|-777-9-9-9--999-666-777-9-9-9----9---|
|------------777----------------7-----|

Post Chorus 2 (Rhythm)
|-------------------------------------|
|-------------------------------------|
|-999-111111-----888-999-111111-------|
|-999-111111-999-888-999-111111-999---|
|-777-9-9-9--999-666-777-9-9-9--999---|
|------------777----------------777---|
                               (Lead)
                              |------|
                              |------|
                              |------|
                              |-9----|
                              |-x----|
                              |-7----|

|---------------------------|
|---------------------------|
|-------------------131313--|
|-999-111111-131313-131313--|
|-999-111111-131313-111111--|
|-777-9-9-9--111111---------|

|------------------------|
|------------------------|
|-99999999-111111111111--|
|-99999999-111111111111--|
|-77777777-9-9-9-9-9-9---|
|------------------------|

Verse 2
|-----------------------------|
|-----------------------------|
|--------101010-111111-131313-|
|-111111-101010-111111-131313-|
|-111111-8-8-8--9-9-9--111111-|
|-9-9-9-----------------------|

Chorus 2 (Lead)
|-------------------|
|-------------------|
|-11---/13----/10---|
|-------------------|
|-9----/11----/8----|
|-------------------|

Chorus 2 (Rhythm)
|------------------------------------------|
|------------------------------------------|
|-111111-11-111111-11-101010-10-101010-10--|
|-111111-11-111111-11-101010-10-101010-10--|
|-9-9-9--9--9-9-9--9--8-8-8--8--8-8-8--8---|
|------------------------------------------|
  . . .     . . .     . . .     . . .

Post Chorus 3
|---------------------------------------------------|
|---------------------------------------------------|
|-111111-131313--------101010-111111-131313---------|
|-111111-131313-111111-101010-111111-131313------11-|
|-9-9-9--111111-111111-8-8-8--9-9-9--111111---11----|
|---------------9-9-9-----------------------9-------|

C#5
|-------------------|
|-------------------|
|-------------------|
|-11----------------|
|-11----------------|
|-9-----------------|

Structure
Verse        x4
Chorus       x1
Post Chorus  x1
Verse        x4
Chorus       x1
Post Chorus 2
Verse 2      x4
Chorus 2     x1
Post Chorus3 x1
C#5
---------------------------------------------------------------------------------------------
                         Athiest Anthem 4-Track Demo
Guitar 1
|----------------------------------|--------------------------------|
|----------------------------------|--------------------------------|
|----------------------------------|--------------------------------|
|-55555555444444442222222233333333-|-555555554444444422222222-3--3--|
|----------------------------------|--------------------------------|
|----------------------------------|--------------------------------|
  ................................   ........................

Guitar 2
|-77777777555555557777777755555555-|-777777775555555577777777-5--5--|
|----------------------------------|--------------------------------|
|----------------------------------|--------------------------------|
|----------------------------------|--------------------------------|
|----------------------------------|--------------------------------|
|----------------------------------|--------------------------------|
  ................................   ........................

Verse
|----------------------------------------------------------|
|----------------------------------------------------------|
|----------------------555555------------------------------|
|-555555-444444-222222-555555--555555-444444-222222-333333-|
|-555555-444444-222222-333333--555555-444444-222222-333333-|
|-333333-222222-000000---------333333-222222-000000-111111-|

Chorus
|----x2-----------|-------|
|-----------------|-------|
|-12--14--16--17--|-12----|
|-x---x---x---x---|-x-----|
|-10--12--14--15--|-10----|
|-----------------|-------|

Bridge
|-----------------------------------------|
|-----------------------------------------|
|-12--14---12--14---12--14---16-17-16-14--|
|-x---x----x---x----x---x----x--x--x--x---|
|-10--12---10--12---10--12---14-15-14-12--|
|-----------------------------------------|

|---------------------------------------------|
|---------------------------------------------|
|-12--14---12--14---12--14---12-14--16-17-16--|
|-x---x----x---x----x---x----x--x---x--x--x---|
|-10--12---10--12---10--12---10-12--14-15-14--|
|---------------------------------------------|

End
G Octave       G5
|-------------------|
|-------------------|
|-12-----------12---|
|-x------------12---|
|-10-----------10---|
|-------------------|

Structure
Intro
Verse
Chorus
Verse
Bridge
Verse
Chorus
End
-----------------------------------------------------------------------------------------
                        Nobody Is Free 4-Track Demo
Verse
Guitar 1
|----------------|---------------|---------------|----------------|
|----------------|---------------|---------------|----------------|
|----------------|---------------|---------------|----------------|
|----------------|----444-555-444|----666-777-666|----444-555-444-|
|----444-555-444-|-55------------|-77------------|-55-------------|
|-55-------------|---------------|---------------|----------------|

Guitar 2
|----------------|---------------|---------------|----------------|
|----------------|---------------|---------------|----------------|
|----------------|-7-------------|-9-------------|-7--------------|
|-7--------------|-7-------------|-9-------------|-7--------------|
|-7--------------|-5-------------|-7-------------|-5--------------|
|-5--------------|---------------|---------------|----------------|

Chorus
Guitar 1
|----------|-------------------------|
|----------|-------------------------|
|----------|-------------------------|
|-7--9--5--|-7--9--7--5--7/9\7-------|
|-x--x--x--|-x--x--x--x--x-x-x-------|
|-5--7--3--|-5--7--5--3--5/7\5-------|

|-----------------------------------------------------|
|-----------------------------------------------------|
|-----------------------------------------------------|
|-9/12-121212121212-12\11111111111111-11\99999999-777-|
|-x-x--x-x-x-x-x-x--x--x-x-x-x-x-x-x--x--xxxxxxxx-xxx-|
|-7/10-101010101010-10\9-9-9-9-9-9-9--9\-77777777-555-|

|-------------------------------------------------------------------------|
|-------------------------------------------------------------------------|
|-------------------------------------------------------------------------|
|-12121212-14141414-12121212-14141414-12121212-14141414--12-12-12-12-12---|
|-x-x-x-x--x-x-x-x--x-x-x-x--x-x-x-x--x-x-x-x--x-x-x-x---x--x--x--x--x----|
|-10101010-12121212-10101010-12121212-10101010-12121212--10-10-10-10-10/--|


Guitar 2
|------------------------------|
|------------------------------|
|------------------------------|
|-77777777-99999999-55555555---|
|-77777777-99999999-55555555---|
|-55555555-77777777-33333333---|
  ........ ........ ........

Chorus 2
|----------|--------------|
|----------|--------------|
|----------|--------------|
|-7--9--5--|-777-99-7-5-7-|
|-x--x--x--|-xxx-xx-x-x-x-|
|-5--7--3--|-555-77-5-3-5-|

|-----------------------------------------------------|
|-----------------------------------------------------|
|-----------------------------------------------------|
|-9/12-121212121212-12\11111111111111-11\99999999-777-|
|-x-x--x-x-x-x-x-x--x--x-x-x-x-x-x-x--x--xxxxxxxx-xxx-|
|-7/10-101010101010-10\9-9-9-9-9-9-9--9\-77777777-555-|

|---------------------------------------------------------------------|
|---------------------------------------------------------------------|
|---------------------------------------------------------------------|
|-12121212-14141414-12121212-14141414-12121212-14141414--1212121212---|
|-x-x-x-x--x-x-x-x--x-x-x-x--x-x-x-x--x-x-x-x--x-x-x-x---x-x-x-x-x----|
|-10101010-12121212-10101010-12121212-10101010-12121212--1010101010/--|

A5
|-----|
|-----|
|-----|
|-7---|
|-7---|
|-5---|

Structure
Verse
Chorus
Verse
Chorus
A5
Verse
A5
-------------------------------------------------------------------------------------
                               Rock The 4-Track
Intro
|-------------------|
|-------------------|
|-9----12-11-10-----|
|-x-----------------|
|-7----14-9--8------|
|-------------------|

Intro 2
|----------------------------------|------------------------------------|
|----------------------------------|------------------------------------|
|-99999-55555-12121212121212121212-|-99999-55555-1212121212--1414-1616--|
|-xxxxx-xxxxx-x-x-x-x-x-x-x-x-x-x--|-xxxxx-xxxxx-x-x-x-x-x---x-x--x-x---|
|-77777-33333-10101010101010101010-|-77777-33333-1010101010--1212-1414--|
|----------------------------------|------------------------------------|

Verse
|------------------------------------------------------------|
|----------------121212121212-151515151515-13131313-12121212-|
|-12121212121212---------------------------------------------|
|------------------------------------------------------------|
|------------------------------------------------------------|
|-------------------x3---------------------------------------|
  .............. ............ ............ ........  .......

|--------------------------------------------------------1414-15-|
|----------------121212121212-13131313-15151515-17171717---------|
|-12121212121212-------------------------------------------------|
|----------------------------------------------------------------|
|----------------------------------------------------------------|
|----------------------------------------------------------------|
  .............. ............

Pre Chorus
|-------------------------------------------------|
|-------------------------------------------------|
|-------77777-4444444444-------55555-4444444444---|
|-55555-77777-4444444444-55555-55555-4444444444---|
|-55555-55555-2222222222-55555-33333-2222222222---|
|-33333------------------33333--------------------|

|------------------------------------------|
|------------------------------------------|
|-12121212-7777-4444---12121212-7777-4444--|
|-x-x-x-x--xxxx-xxxx---x-x-x-x--xxxx-xxxx--|
|-10101010-5555-2222---10101010-5555-2222--|
|------------------------------------------|

Chorus
|----------------------------|
|----------------------------|
|-555555-555555-44444-44444--|
|-555555-555555-44444-44444--|
|-333333-333333-22222-22222--|
|----------------------------|
    
|-----------------------------|
|-----------------------------|
|-555555-555555-44444-55-77---|
|-555555-555555-44444-55-77---|
|-333333-333333-22222-33-55---|
|-----------------------------|

Bridge
|-----------------------------------------------|
|-----------------------------------------------|
|-1212121212-1919191919-1616161616-1616161616---|
|-x-x-x-x-x--x-x-x-x-x--x-x-x-x-x--x-x-x-x-x----|
|-1010101010-1717171717-1414141414 1414141414---|
|-----------------------------------------------|

Outro
|------------------------------|
|------------------------------|
|-4444-55-77--4444-55-77-------|
|-4444-55-77--4444-55-77---5---|
|-2222-33-55--2222-33-55---5---|
|--------------------------3---|

Structure
Intro
Intro 2
Verse
Pre Chorus
Chorus
Verse
Pre Chorus
Chorus
Verse
Pre Chorus
Chorus
Bridge
Chorus
Outro
-----------------------------------------------------------------------------------------
                      Gay Rude Boys Unite (Instrumental '99)

Intro
|--------------------------------|
|--------------------------------|
|--------------------------------|
|--------------------------------|
|-----2-2-4-4-------4-4-2-2-4-4--|
|-0-0---------4-5-5--------------|
  . . . . . . . . . . . . . . .

Verse
Guitar 1
|-------------------|
|-9------14---16----|
|-9------14---16----|
|-9------14---16----|
|-7------12---14----|
|-------------------|

Verse
Guitar 2
|------------------------|-----------------------------------|
|------------------------|-----------------------------------|
|------------------------|-----------------------------------|
|------------------------|-----------------1/2-1h2p1h2p1h2p1-|
|---2-2h4p2-------2h4-2--|---2-2h4p2-------------------------|
|-0---------5-2-0--------|-0---------5-2-0-------------------|

|---------------------------------|
|---------------------------------|
|---------------------------------|
|---------------------------------|
|---2-2h4p2-------2h4-2h4p2-------|
|-0---------5-2-0-----------5-2-0-|

|-----------------------------|
|-----------------------------|
|-----------------------------|
|-----------------1/2-1-1-----|
|---2-2h4p2---------------4-4-|
|-0---------5-2-0-------------|

Chorus
Guitar 1
|------------------------------|
|------------------------------|
|-99-99-99-99-99-99-99-1111-8--|
|-xx-xx-xx-xx-xx-xx-xx-x-x--x--|
|-77-77-77-77-77-77-77-9-9--6--|
|------------------------------|

Chorus
Guitar 2
|---------------------------------------------------|
|---------------------------------------------------|
|-6666666-99999999-131313131313-16161616-1414-1313--|
|-xxxxxxx-xxxxxxxx-x-x-x-x-x-x--x-x-x-x--x-x--x-x---|
|-4444444-77777777-111111111111-14141414-1212-1111--|
|---------------------------------------------------|

|---------------------------------------------|
|---------------------------------------------|
|-6666666-99999999-131313131313-11111111-9-8--|
|-xxxxxxx-xxxxxxxx-x-x-x-x-x-x--x-x-x-x--x-x--|
|-4444444-77777777-111111111111-9-9-9-9--7-6--|
|---------------------------------------------|

Post Chorus
|---------------------------------|
|---------------------------------|
|---------------------------------|
|---------------------------------|
|-444-444-444-444-444-444-444-444-|
|---------------------------------|

|------------------------------------------------------|
|------------------------------------------------------|
|--181818-181818-181818-181818-181818-181818-----------|
|--x-x-x--x-x-x--x-x-x--x-x-x--x-x-x--x-x-x------------|
|-/161616-161616-161616-161616-161616-161616--2-0------|
|-------------------------------------------------4-2--|

Bridge
|------------------------|
|------------------------|
|------------------------|
|------------------------|
|----22-44-----44-22-44--|
|-00------4-55-----------|

E5
|--------------------|
|--------------------|
|--------------------|
|-2------------------|
|-2------------------|
|-0------------------|

Structure
Intro
Verse 
Chorus
Post Chorus
Verse 
Chorus
Post Chorus
Bridge x4
Bridge w/Verse
E5
-----------------------------------------------------------------------------
-----------------------------------------------------------------------------
                         Apple Pie & Police State
Guitar 1 Left Speaker
Intro
|-------------------------------|
|-------------------------------|
|-12------------10101010--------|
|-x-------------10101010-101010-|
|-10------------8-8-8-8--101010-|
|------------------------8-8-8--|

Main Riff
|-----------------------|
|-----------------------|
|-----777-1212----------|
|-555-777-1212-10101010-|
|-555-555-1010-10101010-|
|-333----------8-8-8-8--|

Verse
|-------------------|
|-------------------|
|-12---------12-----|
|-------------------|
|-10---------10-----|
|-------------------|

Verse 2
Ain't This Country Great
|----x14-------|-------------|
|--------------|-------------|
|-------12-12--|-12-12-12-12-|
|--------------|-12-12-12-12-|
|-10-10--------|-10-10-10-10-|
|--------------|-------------|

Verse 3
|-------------------------------------------------------------|
|-------------------------------------------------------------|
|-1212121212121212-1414141414141414-161616161616-171717171717-|
|-x-x-x-x-x-x-x-x--x-x-x-x-x-x-x-x--x-x-x-x-x-x--x-x-x-x-x-x--|
|-1010101010101010-1212121212121212-141414141414-151515151515-|
|-------------------------------------------------------------|

Outro
|-------------------------------------------|
|-------------------------------------------|
|-------------------------------------------|
|-55555555-77777777-99999999-10101010101010-|
|-55555555-77777777-99999999-10101010101010-|
|-33333333-55555555-77777777-8-8-8-8-8-8-8--|

|--------------------------------------|
|--------------------------------------|
|--------------------------------------|
|-5--------7--------9--------10-9-7----|
|-5--------7--------9--------10-9-7----|
|-3--------5--------7--------8--7-5----|

G5
|-------------------|
|-------------------|
|-------------------|
|-5-----------------|
|-5-----------------|
|-3-----------------|

-----------------------------------------------------------------------------
Guitar 2 Right Speaker
Intro
|-------------------|
|-------------------|
|-------------------|
|-5-----------------|
|-5-----------------|
|-3-----------------|

Main Riff
|-----------------------|
|-----------------------|
|-----777-1212----------|
|-555-777-1212-10101010-|
|-555-555-1010-10101010-|
|-333----------8-8-8-8--|

Verse
|-----------------------------------|
|-----------------------------------|
|-----------------------------------|
|---------5555-------------3333-----|
|-----5555----3333-----5555----5555-|
|-3333-------------3333-------------|
  .................................

Verse 2 
|-------------------------------------------|
|-------------------------------------------|
|-------------------------------------------|
|-55555555-77777777-99999999-10101010101010-|
|-55555555-77777777-99999999-10101010101010-|
|-33333333-55555555-77777777-8-8-8-8-8-8-8--|
  ........ ........ ........ . . . . . . .

Verse 3 
|-------------------------------------------------------------|
|-------------------------------------------------------------|
|-------------------------------------------------------------|
|-5----------------7----------------9------------10-----------|
|-5----------------7----------------9------------10-----------|
|-3----------------5----------------7------------8------------|

Outro
|-------------------------------------------|
|-------------------------------------------|
|-------------------------------------------|
|-55555555-77777777-99999999-10101010101010-|
|-55555555-77777777-99999999-10101010101010-|
|-33333333-55555555-77777777-8-8-8-8-8-8-8--|

|--------------------------------------|
|--------------------------------------|
|--------------------------------------|
|-5--------7--------9--------10-9-7----|
|-5--------7--------9--------10-9-7----|
|-3--------5--------7--------8--7-5----|

G5
|-------------------|
|-------------------|
|-------------------|
|-5-----------------|
|-5-----------------|
|-3-----------------|

Structure
Intro
Main Riff
Verse
Main Riff
Verse
Verse 2
Main Riff
Verse
Verse 2
Verse 3
Main Riff
Verse
Verse 2
Verse 3
Outro
Outro 2
-----------------------------------------------------------------------------
-----------------------------------------------------------------------------

Crikey, That Took Some Time!

Rate & Comments Would Be Nice :)
Tap to rate this tab
 
# A B C D E F G H I J K L M N O P Q R S T U V W X Y Z