Song name
# A B C D E F G H I J K L M N O P Q R S T U V W X Y Z

Leftover Crack - Nazi Whitetrash tab

-----------------------------------------------
       Nazi White Trash - Leftover Crack
-----------------------------------------------
 
 

INTRO
 
 
    E E E E E E E E   E E E E E E E E   E E E E E E E E
eb|-----------------|-----------------|-----------------|
Bb|-----------------|-----------------|-----------------|
Gb|-----------------|-----------------|-----------------|
Db|-----------------|-----------------|-----------------|
Ab|---7---7---7---7-|---7---7---7---7-|---7---7---7---7-|
Eb|-0---0---0---0---|-0---0---0---0---|-7---7---7---7---|
 
  
  E E E E E E E E   E E E E E E E E
|-----------------|-----------------|
|-----------------|-----------------|
|-----------------|-----------------|
|-----------------|-----------------|
|---7---7---7---7-|---7---7---7---7-|
|-9---9---9---9---|-7---7---7---7---|
 

  W                W                W               W
|----------------|----------------|---------------|-----------------|
|----------------|----------------|---------------|-----------------|
|----------------|-4--------------|-6-------------|-4---------------|
|-2--------------|-4--------------|-6-------------|-4---------------|
|-2--------------|-2--------------|-4-------------|-2---------------|
|-0--------------|----------------|---------------|-----------------|
 
 
    Q  E Q  E E E   Q  E Q  E E E   Q  E Q  E E E   Q  E Q  E E E
||----------------|---------------|---------------|-----------------||
||o---------------|---------------|---------------|----------------o||
||----------------|-4--4-4--4-4-4-|-6--6-6--6-6-6-|-4--4-4--4-4-4---||
||--2--2-2--2-2-2-|-4--4-4--4-4-4-|-6--6-6--6-6-6-|-4--4-4--4-4-4---||
||o-2--2-2--2-2-2-|-2--2-2--2-2-2-|-4--4-4--4-4-4-|-2--2-2--2-2-2--o||
||--0--0-0--0-0-0-|---------------|---------------|-----------------||
 

 
VERSES
 
 
    E E E E  E E E E    E E E E  E E E E
||--X-7-X-7--X-7-X-7--|-X-7-X-7--X-7-X-7--|
||o-X-9-X-9--X-9-X-9--|-X-7-X-7--X-7-X-7--|
||--X-9-X-9--X-9-X-9--|-X-8-X-8--X-8-X-8--|
||--X-9-X-9--X-9-X-9--|-X-9-X-9--X-9-X-9--|
||o-X-7-X-7--X-7-X-7--|-X-9-X-9--X-9-X-9--|
||--X---X----X---X----|-X-7-X-7--X-7-X-7--|


  E E E E  E E E E    E E E E  E E E E
|-X-4-X-4--X-4-X-4--|-X-7-X-7--X-7-X-7---||
|-X-6-X-6--X-6-X-6--|-X-7-X-7--X-7-X-7--o||
|-X-6-X-6--X-6-X-6--|-X-8-X-8--X-8-X-8---||
|-X-6-X-6--X-6-X-6--|-X-9-X-9--X-9-X-9---||
|-X-4-X-4--X-4-X-4--|-X-9-X-9--X-9-X-9--o||
|-X---X----X---X----|-X-7-X-7--X-7-X-7---||
 
  play 4 times for both verses 



CHORUS
 
  
    E E  Q  E E  Q    E E  Q  E E  Q
||------------------|------------------||
||o-----------------|-----------------o||
||------------------|-6-6--6-----------||
||--2-2--2--6-6--6--|-6-6--6--7-7--7---||   
||o-2-2--2--6-6--6--|-4-4--4--7-7--7--o||
||--0-0--0--4-4--4--|---------5-5--5---||

  play 4 times the first 2 choruses, for the last chorus play 8 times,
  palm muting the 5-8 times, and end with an open E5 chord
 
 
  BRIDGE
 

 
    E E E E  E E E E    E E E E  E E  Q
||-------------3------|---------------3---||
||o----------3---3----|------------3-----o||
||--------4--------4--|----------4--------||
||------5-------------|-5-----5-----------||
||o---5---------------|-----5------------o||
||--3-----------------|---3---------------||
 
  
    E E E E  E E E E    E E E E  E E  Q
||-------------2------|---------------2---||
||o----------2---2----|------------2-----o||
||--------3--------3--|----------3--------||
||------4-------------|-4-----4-----------||
||o---4---------------|-----4------------o||
||--2-----------------|---2---------------||
 


OUTRO

  E E E E  E E E E    E E E E  E E E E    E E E E  E E E E
|-------------------|-------------------|-------------------|
|-------------------|-------------------|-------------------|
|-------------------|-------------------|-------------------|
|-----7--------7----|-----7--------7----|-----7--------7----|
|---7---7----7---7--|---7---7----7---7--|---7---7----7---7--|
|-0--------0--------|-0--------0--------|-7--------7--------|


  E E E E  E E E E    E E E E  E E E E
|-------------------|-------------------|
|-------------------|-------------------|
|-------------------|-------------------|
|-----7--------7----|-----7--------7----|
|---7---7----7---7--|---7---7----7---7--|
|-9--------9--------|-7--------7--------|



  W              W              W             W               E  Q
|--------------|--------------|-------------|---------------|---------|
|--------------|--------------|-------------|---------------|---------|
|--------------|-4------------|-6-----------|-4-------------|-4-------|
|-2------------|-4------------|-6-----------|-4-------------|-4--2----|
|-2------------|-2------------|-4-----------|-2-------------|-2--2----|
|-0------------|--------------|-------------|---------------|----0----|
Tap to rate this tab
 
# A B C D E F G H I J K L M N O P Q R S T U V W X Y Z