Song name
# A B C D E F G H I J K L M N O P Q R S T U V W X Y Z

Leftover Crack - Gang Control tab

-----------------------------------------------------------------------------
                       Leftöver Crack - Gang Control
-----------------------------------------------------------------------------

finally tabbed this for all those crack rockers out there, enjoy


Tabbed by: free_mollusk 
E-mail: mollusk44@gmail.com

Tuning: Standard 


Intro [clean] 

e|-----------------------------------------------------|
B|-----------------------------------------------------|
G|-----------------------------------------------------| x2
D|--------7-6-4----------------------9-7-6-------------|
A|-4-7-4--------7-6-4---------7-9-7--------9-7-6-------|
E|---------------------4-5-4----------------------9-7--|



Verse [clean]

e|-x-4-x-4-x-4-x-4-x-4--4/5--x-x-x-x-x-x-x-x-x-x--5/7--|
B|-x-5-x-5-x-5-x-5-x-5--4/5--9-x-9-x-9-x-9-x-9-x--5/7--|
G|-x-6-x-6-x-6-x-6-x-6--5/6--9-x-9-x-9-x-9-x-9-x--6/8--|
D|----------------------6/7--9-x-9-x-9-x-9-x-9-x--7/9--|
A|-----------------------------------------------------|
E|-----------------------------------------------------|



verse part 2 [clean]

e|-x-4-x-4-x-4-x-4-/-5-x-5-/-7-x-7--x-x-x-x-x-7-x-7-x-9--x-9--x-5-x-5--|
B|-x-5-x-5-x-4-x-4-/-5-x-5-/-7-x-7--x-9-x-9-x-7-x-7-x-10-x-10-x-5-x-5--|
G|-x-6-x-6-x-5-x-5-/-6-x-6-/-8-x-8--x-9-x-9-x-8-x-8-x-11-x-11-x-6-x-6--|
D|-----------6-x-6-/-7-x-7-/-9-x-9--x-9-x-9-x-9-x-9-x-9--x-9--x-7-x-7--|
A|---------------------------------------------------------------------|
E|---------------------------------------------------------------------|


pre-chorus 1st part [distorted] 

e|--------------------------|
B|--------------------------|
G|--9-9-9-8-8-8-6-6-6-2-2-2-| x2
D|--9-9-9-8-8-8-6-6-6-2-2-2-|  
A|--7-7-7-6-6-6-4-4-4-0-0-0-|
E|--------------------------|


pre-chorus 2nd part

e|------------------------------------------------------------------------------------------|
B|------------------------------------------------------------------------------------------|
G|-13-13-13-13-13-13-13-13-13-13-13-13--16-16-16-16-16-16-16-16-16-16-16-16---16--13-14-13--|
D|--x--x--x--x--x--x--x--x--x--x--x--x---x--x--x--x--x--x--x--x--x--x--x--x----x---x--x--x--|
A|-11-11-11-11-11-11-11-11-11-11-11-11--14-14-14-14-14-14-14-14-14-14-14-14---14--11-12-11--|
E|------------------------------------------------------------------------------------------|


chorus [distorted] 

e|------------------------------|
B|------------------------------|
G|--------------4/6--4-x-x-4/9--| x2
D|-2------x--x--4/6--4-x-x-4/9--|
A|-2-x-x--x--x--2/4--2-2-2-2/7--|
E|-0-0-0-+3-+3------------------|
         harmon.     harmon.


2nd Verse

pre-chorus

after 2nd Chorus ("Around the globe..")

e|---------------------------------------|
B|---------------------------------------|
G|------6\4-2--2-4/6------6\4-2--2-4/6---|
D|-2--2-6\4-2--2-4/6-2--2-6\4-2--2-4/6---|
A|-2--2-4\2-0--0-2/4-2--2-4\2-0--0-2/4---|
E|-0--0--------------0--0----------------|


then..


Verse [clean]  (only one time at this point)

e|-x-4-x-4-x-4-x-4-x-4--4/5--x-x-x-x-x-x-x-x-x-x--5/7--|
B|-x-5-x-5-x-5-x-5-x-5--4/5--9-x-9-x-9-x-9-x-9-x--5/7--|
G|-x-6-x-6-x-6-x-6-x-6--5/6--9-x-9-x-9-x-9-x-9-x--6/8--|
D|----------------------6/7--9-x-9-x-9-x-9-x-9-x--7/9--|
A|-----------------------------------------------------|
E|-----------------------------------------------------|

 
verse part 2 [clean]  (play this only one time too)

e|-x-4-x-4-x-4-x-4-/-5-x-5-/-7-x-7--x-x-x-x-x-7-x-7-x-9--x-9--x-5-x-5--|
B|-x-5-x-5-x-4-x-4-/-5-x-5-/-7-x-7--x-9-x-9-x-7-x-7-x-10-x-10-x-5-x-5--|
G|-x-6-x-6-x-5-x-5-/-6-x-6-/-8-x-8--x-9-x-9-x-8-x-8-x-11-x-11-x-6-x-6--|
D|-----------6-x-6-/-7-x-7-/-9-x-9--x-9-x-9-x-9-x-9-x-9--x-9--x-7-x-7--|
A|---------------------------------------------------------------------|
E|---------------------------------------------------------------------|


[distorted]

                                     x2 
e|-------------------------------------|-------------|
B|-------------------------------------|-------------|
G|-6-6-------------9-9-----11-11-14-14-|--9--11--14--|
D|-6-6-6-6-7-7-9-9-9-9-9-9-11-11-14-14-|--x---x---x--|
A|-4-4-6-6-7-7-9-9-7-7-9-9--9--9-12-12-|--7--9---12--|
E|-----4-4-5-5-7-7-----7-7-------------|-------------|  two, three, four!


FUCK THA POLiCE!!...


outro [dist.]


guitar I

e|---------------------------------------|---|
B|---------------------------------------|---|
G|------6-4-2--2-4-6------6-4-2--2-4-6---|---|
D|-2--2-6-4-2--2-4-6-2--2-6-4-2--2-4-6---|-2-|
A|-2--2-4-2-0--0-2-4-2--2-4-2-0--0-2-4---|-2-|
E|-0--0--------------0--0----------------|-0-|


guitar II

e|---------------------------------------------------------------|---|
B|---------------------------------------------------------------|---|
G|-9-9-9-9-9-9-8-8-8-4-4-4--14-14-14-14-14-14-13-13-13-11-11-11--|-9-|
D|-x-x-x-x-x-x-x-x-x-x-x-x---x--x--x--x--x--x--x--x--x--x--x--x--|-x-|
A|-7-7-7-7-7-7-6-6-6-2-2-2--12-12-12-12-12-12-11-11-11-9--9--9---|-7-|
E|---------------------------------------------------------------|---|




************************************

| /   slide up
| \   slide down
| h   hammer-on
| p   pull-off
| ~   vibrato
| +   harmonic
| x   Mute note
| b   Bend
| pb  Pre-bend
| br  Bend release
| pbr Pre-bend release
| brb Bend release bend

************************************

Tap to rate this tab
# A B C D E F G H I J K L M N O P Q R S T U V W X Y Z