Song name
# A B C D E F G H I J K L M N O P Q R S T U V W X Y Z

Leftover Crack - The Good The Bad And The Leftover Crack tab

     The Good, The Bad, And The Leftover Crack - Leftover Crack

Tabbed by:DieDieMyDarling
Email:Picklespit521@aol.com

Tuning:standard

this is a really simple two chord blues riff song, it starts out with a trem picked 
down the neck....

verse
e|--------------------------------------------------------------------------|
B|--------------------------------------------------------------------------|
G|--------------------------------------------------------------------------|
D|-2-2-2-2------------------------------------------------------------------|
A|-2-2-2-2------Reapeat As Needed-------------------------------------------|
E|-0-0-3-3------------------------------------------------------------------|
 pm. . . .
chorus, strum these
e|--------------------------------------------------------------------------|
B|--------------------------------------------------------------------------|
G|-5-5-5-5-5-5-5-5-5-5-5-5-5-5-5-5-/-8-\-4-4-4-4-4-4-4-4-4-4-4-4-4-4-4-4----|
D|-5-5-5-5-5-5-5-5-5-5-5-5-5-5-5-5-/-8-\-4-4-4-4-4-4-4-4-4-4-4-4-4-4-4-4----|
A|-3-3-3-3-3-3-3-3-3-3-3-3-3-3-3-3-/-6-\-2-2-2-2-2-2-2-2-2-2-2-2-2-2-2-2----|
E|--------------------------------------------------------------------------|

 for the bridge slide down the neck into a open E a bunch o' times.

play a blues scale at the 12th fret for solo, i improvse and it sounds fine.

| /  slide up
| \  slide down
| h  hammer-on
| p  pull-off
| ~  vibrato
| +  harmonic
| x  Mute note
Tap to rate this tab
# A B C D E F G H I J K L M N O P Q R S T U V W X Y Z