Guitaretab - guitar tabs
Song name
# A B C D E F G H I J K L M N O P Q R S T U V W X Y Z

Leftover Crack - Gang Control tab

this should be very acurate 

After the bass intro

verse
Play with the ska up strokes
e|--4x4x4x4x4x4-4-5-----xxxxxxxxxxx-5-7| 
B|--5x5x5x5x5x5-4-5-----9x9x9x9x9x9-5-7| 
G|--6x6x6x6x6x6-5-6-----9x9x9x9x9x9-6-8| x4
D|----------------------9x9x9x9x9x9----| 
A|-------------------------------------| 
E|-------------------------------------| 

Breakdown
e|--4x4x4x--4x4x-5x5x5x-7x7----------9xx9x-5x5x5x-7x7x-| 
B|--5x5x5x--4x4x-5x5x5x-7x7--9x9x9x-10x10x-5x5x5x-7x7x-| 
G|--6x6x6x--5x5x-6x6x6x-8x8--9x9x9x-11x11x-6x6x6x-8x8x-|x2 
D|---------------------------9x9x9x--------------------| 
A|-----------------------------------------------------| 
E|-----------------------------------------------------| 

pre chorus
this part is distortioned
e|--------------------------|   |-----------|
B|--------------------------|   |-----------|
G|-999-888-666-9999---------|x4 |-----------|
D|-999-888-666-9999---------|   |-----------|
A|-777-666-444-9999---------|   |-11-12-11--|
E|-------------7777---------|   |-----------|

chorus
e|-------x-x-x---------x-x-----| 
B|-------x-x-x---------x-x-----| 
G|-------x-x-x-66-444--x-x-6\--|x2
D|--222--x-x-x-66-444--x-x-6\--| 
A|--222--x-x-x-44-222--x-x-4\--| 
E|--000--x-x-x---------x-x-----| 

verse
e|--4x4x4x4x4x4-4-5-----xxxxxxxxxxx-5-7| 
B|--5x5x5x5x5x5-4-5-----9x9x9x9x9x9-5-7| 
G|--6x6x6x6x6x6-5-6-----9x9x9x9x9x9-6-8| x2
D|----------------------9x9x9x9x9x9----| 
A|-------------------------------------| 
E|-------------------------------------| 

breakdown
e|--4x4x4x--4x4x-5x5x5x-7x7----------9xx9x-5x5x5x-7x7x-| 
B|--5x5x5x--4x4x-5x5x5x-7x7--9x9x9x-10x10x-5x5x5x-7x7x-| 
G|--6x6x6x--5x5x-6x6x6x-8x8--9x9x9x-11x11x-6x6x6x-8x8x-|x2 
D|---------------------------9x9x9x--------------------| 
A|-----------------------------------------------------| 
E|-----------------------------------------------------|

pre chorus
e|--------------------------|   |-----------|
B|--------------------------|   |-----------|
G|-999-888-666-9999---------|x4 |-----------|
D|-999-888-666-9999---------|   |-----------|
A|-777-666-444-9999---------|   |-11-12-11--|
E|-------------7777---------|   |-----------|
[ Tab from: http://www.guitaretab.com/l/leftover-crack/56111.html ]
chorus
e|-------x-x-x---------x-x-----| 
B|-------x-x-x---------x-x-----| 
G|-------x-x-x-66-444--x-x-6\--|x2
D|--222--x-x-x-66-444--x-x-6\--| 
A|--222--x-x-x-44-222--x-x-4\--| 
E|--000--x-x-x---------x-x-----| 

e|--------------------------------| 
B|--------------------------------| 
G|--------666-444-222222222--4\6--|x2
D|--22222-666-444-222222222--4\6--| 
A|--22222-444-222-000000000--2\4--| 
E|--00000-------------------------| 

verse
e|--4x4x4x4x4x4-4-5-----xxxxxxxxxxx-5-7| 
B|--5x5x5x5x5x5-4-5-----9x9x9x9x9x9-5-7| 
G|--6x6x6x6x6x6-5-6-----9x9x9x9x9x9-6-8| 
D|----------------------9x9x9x9x9x9----| 
A|-------------------------------------| 
E|-------------------------------------| 

breakdown
e|--4x4x4x--4x4x-5x5x5x-7x7----------9xx9x-5x5x5x-7x7x-| 
B|--5x5x5x--4x4x-5x5x5x-7x7--9x9x9x-10x10x-5x5x5x-7x7x-| 
G|--6x6x6x--5x5x-6x6x6x-8x8--9x9x9x-11x11x-6x6x6x-8x8x-|
D|---------------------------9x9x9x--------------------| 
A|-----------------------------------------------------| 
E|-----------------------------------------------------|


e|-----------------------------------------------| 
B|-----------------------------------------------| 
G|--666-666-777-999-999-777--11-11-11-14-14-14---|
D|--666-666-777-999-999-777--11-11-11-14-14-14---| 
A|--444-666-777-999-777-777--9--9--9--12-12-12---| 
E|------444-555-777-----555----------------------|


e|-------------------------------------------------| 
B|-------------------------------------------------| 
G|--666-666-777-999--9--11--14-14-14-14-14-14-14---|
D|--666-666-777-999--9--11-------------------------| 
A|--444-666-777-999--7--9---12-12-12-12-12-12-12---| 
E|------444-555-777--------------------------------|

chorus
e|-------x-x-x---------x-x-----| 
B|-------x-x-x---------x-x-----| 
G|-------x-x-x-66-444--x-x-6\--|x2
D|--222--x-x-x-66-444--x-x-6\--| 
A|--222--x-x-x-44-222--x-x-4\--| 
E|--000--x-x-x---------x-x-----| 

e|--------------------------------| 
B|--------------------------------| 
G|--------666-444-222222222--4\6--|x2
D|--22222-666-444-222222222--4\6--| 
A|--22222-444-222-000000000--2\4--| 
E|--00000-------------------------| 


outro
e|--------------------------------------|   |-------|
B|--------------------------------------|   |-------|
G|-999999-888-444-666666----------------|x2 |---9---|
D|-999999-888-444-666666-999-777--------|   |---9---|
A|-777777-666-222-444444-999-777--------|   |---7---|
E|-----------------------777-555--------|   |-------|

there you go
Related for Gang Control tab
Gang Control chords by Leftover Crack