Guitaretab - guitar tabs
Song name
# A B C D E F G H I J K L M N O P Q R S T U V W X Y Z

Leftover Crack - Crack City Rockers tab

Intro
E|----------------------|
B|----------------------|
G|7/9--9/12--12/14------|
D|----------------------|
A|5/7--7/10--10/12------|
E|----------------------|

Guitar 1
E|----------------------------------------|
B|----------------------------------------|
G|1914--1611--7-9--11-12--14------------|
D|----------------------------------------|
A|17-12--14--9--5-7---9-10--12------------|
E|----------------------------------------|

Guitar 2
E|---------------|
B|---------------|
G|7-----------7--|
D|7-7-9-4-5-7-7--|
A|5-7-9-4-5-7-5--|
E|--5-7-2-3-5----|

Ska Part
e|--x5x5x5x5--x5x5x5x5--x3x3x3x3--x7x7-x5x5--|
B|--x7x7x7x7--x5x5x5x5--x3x3x3x3--x7x7-x5x5--|
G|--x7x7x7x7--x6x6x6x6--x3x3x3x3--x7x7-x6x6--|
D|--x7x7x7x7--x0x0x0x0--x5x5x5x5--x9x9-x0x0--| X 2
A|--x5x5x5x5--x7x7x7x7--x5x5x5x5--x9x9-x7x7--|
E|-------------------------------------------|

e|--x5x5x5x5--x5x5x5x5---x7x7x7x7--x2x2x2x2--x3x3x3x3--x5x5x5x5--x5x5x5x5----|
B|--x7x7x7x7--x5x5x5x5---x7x7x7x7--x2x2x2x2--x3x3x3x3--x5x5x5x5--x7x7x7x7----|
G|--x7x7x7x7--x6x6x6x6---x7x7x7x7--x2x2x2x2--x3x3x3x3--x6x6x6x6--x7x7x7x7----|
D|--x7x7x7x7--x0x0x0x0---x9x9x9x9--x4x4x4x4--x5x5x5x5--x0x0x0x0--x7x7x7x7----|
A|--x5x5x5x5--x7x7x7x7---x9x9x9x9--x4x4x4x4--x5x5x5x5--x7x7x7x7--x5x5x5x5----|
E|---------------------------------------------------------------------------|

Harmonics
E|----------------------|
B|7---------------------|
G|7---------------------|
D|7---------------------|
A|----------------------|
E|----------------------|

Guitar 1 Chours
e|---------------------------------------------------------------------------|
B|---------------------------------------------------------------------------|
G|--7777--11111111-1212-1111-14141414-7777-11111111-1212-1414-18181818-------|
D|---------------------------------------------------------------------------|
A|--5555--9-9-9-9--1010-9-9--12121212-5555-9-9-9-9--1010-1212-16161616-------|
E|---------------------------------------------------------------------------|

 ----------------------------------------------------------------------------|
 ----------------------------------------------------------------------------|
 --19191919-14141414-16161616-11111111-99-1111-12121212-14141414-------------|

-------------------------------------------------------------------------------|
 --17171717-12121212-14141414-9-9-9-9--77-9-9--10101010-12121212---------------|
-------------------------------------------------------------------------------|

Guitar 2 Chours
E|-----------------|
B|-----------------|
G|7----------------|
D|7--4--5--7-------|
A|5--4--5--5-------|
E|---2--3--5-------|x2

E|-----------------|
B|-----------------|
G|7-----------7----|
D|7-7-9-4-5-7-7----|
A|5-7-9-4-5-7-5----|
E|--5-7-2-3-5------|x1

Ska Part
e|--x5x5x5x5--x5x5x5x5--x3x3x3x3--x7x7-x5x5--|
B|--x7x7x7x7--x5x5x5x5--x3x3x3x3--x7x7-x5x5--|
G|--x7x7x7x7--x6x6x6x6--x3x3x3x3--x7x7-x6x6--|
D|--x7x7x7x7--x0x0x0x0--x5x5x5x5--x9x9-x0x0--| X 2
A|--x5x5x5x5--x7x7x7x7--x5x5x5x5--x9x9-x7x7--|
E|-------------------------------------------|

e|--x5x5x5x5--x5x5x5x5---x7x7x7x7--x2x2x2x2--x3x3x3x3--x5x5x5x5--x5x5x5x5----|
B|--x7x7x7x7--x5x5x5x5---x7x7x7x7--x2x2x2x2--x3x3x3x3--x5x5x5x5--x7x7x7x7----|
G|--x7x7x7x7--x6x6x6x6---x7x7x7x7--x2x2x2x2--x3x3x3x3--x6x6x6x6--x7x7x7x7----|
D|--x7x7x7x7--x0x0x0x0---x9x9x9x9--x4x4x4x4--x5x5x5x5--x0x0x0x0--x7x7x7x7----|
A|--x5x5x5x5--x7x7x7x7---x9x9x9x9--x4x4x4x4--x5x5x5x5--x7x7x7x7--x5x5x5x5----|
E|---------------------------------------------------------------------------|

Background Guitar
e|---------------------------------------------------------------------------|
B|---------------------------------------------------------------------------|
G|--7--7-6--6-4--4-----------6--6-7------------------------------------------|
D|--0--0-0--0-0--0-4--4-5--5-0--0-0------------------------------------------|
A|--5--5-4--4-2--2-0--0-0--0-7--7-5------------------------------------------|
E|-----------------2--2-3--3-5--5--------------------------------------------|


Harmonics
E|----------------------|
B|7---------------------|
G|7---------------------|
D|7---------------------|
A|----------------------|
E|----------------------|


Guitar 1 Chours
e|---------------------------------------------------------------------------|
B|---------------------------------------------------------------------------|
G|--7777--11111111-1212-1111-14141414-7777-11111111-1212-1414-18181818-------|
D|---------------------------------------------------------------------------|
A|--5555--9-9-9-9--1010-9-9--12121212-5555-9-9-9-9--1010-1212-16161616-------|
E|---------------------------------------------------------------------------|

 ----------------------------------------------------------------------------|
 ----------------------------------------------------------------------------|
 --19191919-14141414-16161616-11111111-99-1111-12121212-14141414-------------|

-------------------------------------------------------------------------------|
 --17171717-12121212-14141414-9-9-9-9--77-9-9--10101010-12121212---------------|
-------------------------------------------------------------------------------|

Guitar 2 Chours
E|-----------------|
B|-----------------|
G|7----------------|
D|7--4--5--7-------|
A|5--4--5--5-------|
E|---2--3--5-------|x2

E|-----------------|
B|-----------------|
G|7-----------7----|
D|7-7-9-4-5-7-7----|
A|5-7-9-4-5-7-5----|
E|--5-7-2-3-5------|x1

[ Tab from: http://www.guitaretab.com/l/leftover-crack/56153.html ]
Clean Solo
e|--5------------------------------------------------------------------------|
B|---7-7-5h7-7h8p7h8p7-7-----------------------------------------------------|
G|------------*fast*----7-77-7\6-6-------------------------------------------|
D|--------------------------------7-7-7h9p7h9p7-7----------------------------|
A|-------------------------------------*fast*----9-9h10p9h10p9-9-10p9h10-----|
E|---------------------------------------------------*fast*-------------10---|
                                                                 *fast*
 ------------------|
 ---------8p7h8----|
 --------*fast*7---|
 --9p7h9-----------|
 -------9----------|
 -*fast*-----------|

Ska Part
e|--x5x5x5x5--x5x5x5x5---x7x7x7x7--x2x2x2x2--x3x3x3x3--x5x5x5x5--x5x5x5x5----|
B|--x7x7x7x7--x5x5x5x5---x7x7x7x7--x2x2x2x2--x3x3x3x3--x5x5x5x5--x7x7x7x7----|
G|--x7x7x7x7--x6x6x6x6---x7x7x7x7--x2x2x2x2--x3x3x3x3--x6x6x6x6--x7x7x7x7----|
D|--x7x7x7x7--x0x0x0x0---x9x9x9x9--x4x4x4x4--x5x5x5x5--x0x0x0x0--x7x7x7x7----|
A|--x5x5x5x5--x7x7x7x7---x9x9x9x9--x4x4x4x4--x5x5x5x5--x7x7x7x7--x5x5x5x5----|
E|---------------------------------------------------------------------------|

Background Guitar Start Right When The Ska Parts Start
e|---------------------------------------------------------------------------|
B|---------------------------------------------------------------------------|
G|--7--7-6--6-4--4-----------6--6-7------------------------------------------|
D|--0--0-0--0-0--0-4--4-5--5-0--0-0------------------------------------------|
A|--5--5-4--4-2--2-0--0-0--0-7--7-5------------------------------------------|
E|-----------------2--2-3--3-5--5--------------------------------------------|


Harmonics
E|----------------------|
B|7---------------------|
G|7---------------------|
D|7---------------------|
A|----------------------|
E|----------------------|


Guitar 1 Chours
e|---------------------------------------------------------------------------|
B|---------------------------------------------------------------------------|
G|--7777--11111111-1212-1111-14141414-7777-11111111-1212-1414-18181818-------|
D|---------------------------------------------------------------------------|
A|--5555--9-9-9-9--1010-9-9--12121212-5555-9-9-9-9--1010-1212-16161616-------|
E|---------------------------------------------------------------------------|

 ----------------------------------------------------------------------------|
 ----------------------------------------------------------------------------|
 --19191919-14141414-16161616-11111111-99-1111-12121212-14141414-------------|

-------------------------------------------------------------------------------|
 --17171717-12121212-14141414-9-9-9-9--77-9-9--10101010-12121212---------------|
-------------------------------------------------------------------------------|

Guitar 2 Chours
E|-----------------|
B|-----------------|
G|7----------------|
D|7--4--5--7-------|
A|5--4--5--5-------|
E|---2--3--5-------|x2

E|-----------------|
B|-----------------|
G|7-----------7----|
D|7-7-9-4-5-7-7----|
A|5-7-9-4-5-7-5----|
E|--5-7-2-3-5------|x1

Ska Part
e|--x5x5x5x5--x5x5x5x5--x3x3x3x3--x7x7-x5x5--|
B|--x7x7x7x7--x5x5x5x5--x3x3x3x3--x7x7-x5x5--|
G|--x7x7x7x7--x6x6x6x6--x3x3x3x3--x7x7-x6x6--|
D|--x7x7x7x7--x0x0x0x0--x5x5x5x5--x9x9-x0x0--| X 2
A|--x5x5x5x5--x7x7x7x7--x5x5x5x5--x9x9-x7x7--|
E|-------------------------------------------|

e|--x5x5x5x5--x5x5x5x5---x7x7x7x7--x2x2x2x2--x3x3x3x3--x5x5x5x5--x5x5x5x5----|
B|--x7x7x7x7--x5x5x5x5---x7x7x7x7--x2x2x2x2--x3x3x3x3--x5x5x5x5--x7x7x7x7----|
G|--x7x7x7x7--x6x6x6x6---x7x7x7x7--x2x2x2x2--x3x3x3x3--x6x6x6x6--x7x7x7x7----|
D|--x7x7x7x7--x0x0x0x0---x9x9x9x9--x4x4x4x4--x5x5x5x5--x0x0x0x0--x7x7x7x7----|
A|--x5x5x5x5--x7x7x7x7---x9x9x9x9--x4x4x4x4--x5x5x5x5--x7x7x7x7--x5x5x5x5----|
E|---------------------------------------------------------------------------|

Background Guitar
e|---------------------------------------------------------------------------|
B|---------------------------------------------------------------------------|
G|--7--7-6--6-4--4-----------6--6-7------------------------------------------|
D|--0--0-0--0-0--0-4--4-5--5-0--0-0------------------------------------------|
A|--5--5-4--4-2--2-0--0-0--0-7--7-5------------------------------------------|
E|-----------------2--2-3--3-5--5--------------------------------------------|


Harmonics
E|----------------------|
B|7---------------------|
G|7---------------------|
D|7---------------------|
A|----------------------|
E|----------------------|


Guitar 1 Chours
e|---------------------------------------------------------------------------|
B|---------------------------------------------------------------------------|
G|--7777--11111111-1212-1111-14141414-7777-11111111-1212-1414-18181818-------|
D|---------------------------------------------------------------------------|
A|--5555--9-9-9-9--1010-9-9--12121212-5555-9-9-9-9--1010-1212-16161616-------|
E|---------------------------------------------------------------------------|

 ----------------------------------------------------------------------------|
 ----------------------------------------------------------------------------|
 --19191919-14141414-16161616-11111111-99-1111-12121212-14141414-------------|

-------------------------------------------------------------------------------|
 --17171717-12121212-14141414-9-9-9-9--77-9-9--10101010-12121212---------------|
-------------------------------------------------------------------------------|

Guitar 2 Chours
E|-----------------|
B|-----------------|
G|7----------------|
D|7--4--5--7-------|
A|5--4--5--5-------|
E|---2--3--5-------|x2

E|-----------------|
B|-----------------|
G|7-----------7----|
D|7-7-9-4-5-7-7----|
A|5-7-9-4-5-7-5----|
E|--5-7-2-3-5------|x1

Thats The Song All In Order =)
Related for Crack City Rockers tab