Song name
# A B C D E F G H I J K L M N O P Q R S T U V W X Y Z

Leftover Crack - Burn Them Prisons tab

Lefotver Crack - Burn Them Prisons
Fuck World Trade - 2004 - Track 3
Tabbed by: Stephen Parsons - Stevopar@gmail.com

||Intro
|Guitar 1 - Play throughout entire intro x16, listen to song for rythym.
Drums come in during the 5th time, Vocals during the 9th time.
e|3-33-33-5-55-55-|
B|3-33-33-3-33-33-|
G|----------------|
D|----------------|
A|----------------|
E|----------------|

|Guitar 2 - Listen for the rythym, the slides are easy, for the second
listen to the the drum beat for the palm-mute rythym.
e|----------------|------------------|
B|----------------|------------------|
G|--------------5/|9~----95~----5/|--|
D|--------------5/|9~----95~----5/|--|
A|--------------3/|7~----73~----3/|--|
E|----------------|------------------|

e|----------------|------------------|
B|----------------|------------------|
G|12--------------|9-------5---------|
D|12--------------|9-------5---------|
A|10--------------|7-------3---------|
E|----------------|------------------|
  Palm-muted-------------------------|
a liar once said "we're innocent til proven guilty" - but the the truth is absurd
we're poor until proven rich
and the scales of justice are fixed by lying pigs

||Verse Part 1
|Guitar 1 - Repeat x2, Listen to song for rythym
e|3-5-35--3-5-35--|-3-5-35--3-5-35-|
B|3-3-33--3-3-33--|-5-5-55--5-5-55-|
G|----------------|----------------|
D|----------------|----------------|
A|----------------|----------------|
E|----------------|----------------|

|Guitar 2 - Listen for Rythym x2
e|----------------|----------------|
B|----------------|----------------|
G|12--------------|9---------------|
D|x---------------|x---------------|
A|10--------------|7---------------|
E|----------------|----------------|
plot of human terror unfolds behind the pricint door
to cage all the minorities, the immigrants and poor
next they'll hunt the handicapped, disabled blind and deaf
and what will all these piggies do HA! when theres no one left

||Verse Part 2
|Guitar 1 - Plays the same lead as Part 1 except Plam-muted
|Guitar 2 - Play in power chords, palm-muted 16th notes
G
swat police in riot gear, are bombin us tonight
Em                              C
an all our civil liberties will die by morning's light
G
while crooked politicians lie and rig the ballot book
Em                              C
we whitewash fake democracy and paint another coat

||Chorus
|Guitar 1 - Lead octaves, Rythym is straight 8th notes, all downstrokes;
pause after last octave
e|----------------|----------------|----------------|----------------|
B|----------------|----------------|----------------|----------------|
G|9-------11--12--|9-------11--12--|9-------11--1214|16------14--1311|
D|x-------x---x---|x-------x---x---|x-------x---x-x-|x-------x---x-x-|
A|7-------9---10--|7-------9---10--|7-------9---1012|14------12--119-|
E|----------------|----------------|----------------|----------------|
 Play this second section twice as fast - 16th notes
e|----------------|----------------|----------------|----------------|
B|----------------|----------------|----------------|----------------|
G|9-------11--12--|9-------11--12--|9-------11--1214|16------14------|
D|x-------x---x---|x-------x---x---|x-------x---x-x-|x-------x-------|
A|7-------9---10--|7-------9---10--|7-------9---1012|14------12------|
E|----------------|----------------|----------------|----------------|
                                                             (Rooms...)

|Guitar 2 - Again 8th notes and downstrokes, plays the E octave pretty
much the whole time except for the end
e|----------------|----------------|----------------|----------------|
B|----------------|----------------|----------------|----------------|
G|9---------------|9---------------|9---------------|9-------14--1311|
D|x---------------|x---------------|x---------------|x-------x---x-x-|
A|7---------------|7---------------|7---------------|7-------12--119-|
E|----------------|----------------|----------------|----------------|

e|----------------|----------------|----------------|----------------|
B|----------------|----------------|----------------|----------------|
G|9---------------|9---------------|9---------------|16------14------|
D|x---------------|x---------------|x---------------|x-------x-------|
A|7---------------|7---------------|7---------------|14------12------|
E|----------------|----------------|----------------|----------------|
                                                             (Rooms...)
we'll keep you here to stay; you'll never get away
your property aint mine, until your dying day
we'll crush your soul inside; there is no easy ride
the hotel's never free and the rooms are always occupied

||Verse Part 1
nice of you to join us welcome to the prison age
financial quest for new frontiere to build a bigger cage
surplus populations growing all around the world
capital invests quick to cage these boys and girls

||Verse Part 2
we'll burn/bomb the police state, assassinate the magistrate
we'll go to every town an burn them fuckin prisons down

||Chorus
we'll keep you here to stay; you'll never get away
your property and mine, until your dying day
the court pretenders fake, the judge is on the take
an if u wanna find a cop you're gonna have to drag the lake

||Fill
|Guitar 1 - The same lead played for Verse Part 1
e|3-5-35--3-5-35--|-3-5-35--3-5-35-|3-5-35--3-5-35--|-3-5-35--3-5-35-|
B|3-3-33--3-3-33--|-5-5-55--5-5-55-|3-3-33--3-3-33--|-5-5-55--5-5-55-|
G|----------------|----------------|----------------|----------------|
D|----------------|----------------|----------------|----------------|
A|----------------|----------------|----------------|----------------|
E|----------------|----------------|----------------|----------------|

|Guitar 2 - The High G power chord slides down to the E power chord but
I couldn't fit the  mark
e|----------------|----------------|----------------|------------------|
B|----------------|----------------|----------------|------------------|
G|--------------5/|9~----95~----5/|12~-----------12|9~----95---5555----|
D|--------------5/|9~----95~----5/|12~-----------10|9~----95---5555----|
A|--------------3/|7~----73~----3/|10~-----------10|7~----73---3333----|
E|----------------|----------------|----------------|------------------|


||Verse Part 1
|Guitar 1 - Plays the same lead
|Guitar 2 - Octaves a tad bit different x2
e|----------------|----------------|
B|----------------|----------------|
G|12--------------|9-------------14|
D|x---------------|x-------------x-|
A|10--------------|7-------------12|
E|----------------|----------------|
plot of human terror unfolds behind the pricint door
to cage all the minorities, the immigrants and poor
next they'll hunt the handicapped, disabled blind and deaf
and what will all these piggies do HA! when theres no one left

||End Part 1
|Guitar 1 - Its the same lead and rythym as Verse Part 1 its just played
way higher on the fretboard. Uses a kind of like a half-picking/half-strumming
thing, x4
e|13--15--1315----13--15--1315----|
B|13--13--1313----15--15--1515----|
G|--------------------------------|
D|--------------------------------|
A|--------------------------------|
E|--------------------------------|

|Guitar 2 - Octaves, listen to song for rythym
e|----------------|----------------|
B|----------------|----------------|
G|12------14------|9-------14------|
D|x-------x-------|x-------x-------|
A|10------12------|7-------12------|
E|----------------|----------------|
we'll burn/bomb the police state, assassinate the magistrate
we'll go to every town an burn them fuckin prisons down

||End Part 2
|Guitar 1 - Listen to song for rythym
e|3-5-3-5-3-5-3-5-|3---------------|
B|3-3-3-3-3-3-3-3-|3---------------|
G|----------------|----------------|
D|----------------|----------------|
A|----------------|----------------|
E|----------------|----------------|
                  (Down...)

|Guitar 2
e|----------------|----------------|
B|----------------|----------------|
G|12~-------------|12--------------|
D|x---------------|x---------------|
A|10~-------------|10--------------|
E|----------------|----------------|
                  (Down...)

Song order again:
Intro
Verse Part 1
Verse Part 2
Chorus
Verse Part 1
Verse Part 2 (We'll bomb the...)
Chorus
Fill
Verse Part 1
End Part 1
End Part 2

I'm pretty sure this is correct, I didn't tab the acoustic outro bit. E-mail me if you 
questions,comments corrections, whatever. Have fun.
Tap to rate this tab
 
# A B C D E F G H I J K L M N O P Q R S T U V W X Y Z