Song name
# A B C D E F G H I J K L M N O P Q R S T U V W X Y Z

Leftover Crack - Athiest Anthem tab

-----------------------------------------------------------------------------
			   ATHIEST ANTEM - LEFTOVER CRACK
-----------------------------------------------------------------------------
Tabbed by:kownt homer
Email:homer_punker_dude00@yahoo.com

Tuning:standard
verse play twice (play very fast)
e|-------------------------------------------------------------------|
B|-------------------------------------------------------------------|
G|-------------------------------------------------------------------|
D|-------------------------5-555555----------------------------------|
A|-5-5555554-4444442-2222223-3333335-5555554-4444442-2222223-333333--|
E|-3-3333332-2222220-000000--------3-3333332-2222220-0000001-111111--|

chorus  play twice
e|-------------------------------------------------------------------|
B|-------------------------------------------------------------------|
G|-12--------------11--------------9---------------10----------------|
D|-X---------------X---------------X---------------X-----------------|
A|-10--------------9---------------7---------------8-----------------|
E|-------------------------------------------------------------------|

e|-------------------------------------------------------------------|
B|-------------------------------------------------------------------|
G|-12--------------11--------------9---------------15----------------|
D|-X---------------X---------------X---------------X-----------------|
A|-10--------------9---------------7---------------13----------------|
E|-------------------------------------------------------------------|


third verse
play verse riff once then:
e|-------------------------------------------------------------------|
B|-------------------------------------------------------------------|
G|-------------------------------------------------------------------|
D|---------------------------------5----------------7----------------|
A|-5---------------2---------------3----------------5----------------|
E|-3---------------0-------------------------------------------------|

e|-------------------------------------------------------------------|
B|-------------------------------------------------------------------|
G|-12---14---12---11---12---14---12---11---12------------------------|
D|-X----X----X----X----X----X----X----X----X-------------------------|
A|-10---12---10---9----10---12---14---9----10------------------------|
E|-------------------------------------------------------------------|
(play twice)
e|-------------------------------------------------------------------|
B|-------------------------------------------------------------------|
G|-12------14------12------14------12------14------16---17---16---14-|
D|-X-------X-------X-------X-------X-------X-------X----X----X----X--|
A|-10------12------10------12------10------12------14---15---14---12-|
E|-------------------------------------------------------------------|


play chorus 
then play the same chords but this time tremolo them

outro
 pm. . . . . . . . . . . . . . . . . . . . . . . . . . . . . . . .
e|------------------------------------------------------------------|
B|------------------------------------------------------------------|
G|------------------------------------------------------------------|
D|-------------------------------------------------5-5-5-5-5-5-5-5--|
A|-5-5-5-5-5-5-5-5-4-4-4-4-4-4-4-4-2-2-2-2-2-2-2-2-3-3-3-3-3-3-3-3--|
E|-3-3-3-3-3-3-3-3-2-2-2-2-2-2-2-2-0-0-0-0-0-0-0-0------------------|

   . . . . . . . . . . . . . . . . . . . . . . . .
e|------------------------------------------------------------------|
B|------------------------------------------------------------------|
G|------------------------------------------------------------------|
D|---------------------------------------------------------------5--|
A|-5-5-5-5-5-5-5-5-4-4-4-4-4-4-4-4-2-2-2-2-2-2-2-2-3-3-3-3-4-4-5-3--|
E|-3-3-3-3-3-3-3-3-2-2-2-2-2-2-2-2-0-0-0-0-0-0-0-0-1-1-1-1-2-2-3----|


| /  slide up
| \  slide down
| h  hammer-on
| p  pull-off
| ~  vibrato
| +  harmonic
| x  Mute note
===============================================================================
Tap to rate this tab
# A B C D E F G H I J K L M N O P Q R S T U V W X Y Z