Song name
# A B C D E F G H I J K L M N O P Q R S T U V W X Y Z

Leftover Crack - Soon Well Be Dead tab

--------------------------------------------------------------------------
 SOON WE'LL BE DEAD - Leftover Crack with World/Inferno Friendship Society
--------------------------------------------------------------------------

Band: Leftover Crack with World/Inferno Friendship Society
Album: Fuck World Trade (2004, Alternative Tentacles Records)
Song: Soon We'll Be Dead

Tabbed by Kyle T.
Contact: pants_me@hotmail.com
Site: www.wqhosting.com/~ohpkyle/

Standard tuning (EADGbe)

Legend:

pm... - Palm mute
  x   - Dead note
  ~   - Let ring
  %   - Rest
  /   - Slide up
  \   - Slide down
  h   - Hammer on
 b/r  - bend/release
 (x)  - Note tied over from previous bar


--------------------------

Note: At some parts in the song there is a clean electric picking some notes, most 
      likely the chords that the acoustic is playing. The third verse also sounds
      picked.


"If we leave the respondibility of tomorrow up to institutions like the World Trade Organization,
the World Bank, and the International Monetary Fund, we're dooming ourselves to a future of
corporate feudalism and ecological catastrophe."

Fuckin' right!

--------------------------


Tuning: Standard (EADGbe)

Chords Used:

    G   Cadd9  G/E  Dsus4   E5    A
e|--3-----3-----3-----3-----------------|
b|--3-----3-----3-----3-----------2-----|
G|--0-----0-----0-----2-----------2-----|
D|--0-----2-----2-----0-----------2-----|
A|--2-----3-----------------2-----0-----|
E|--3-----------------------0-----------|


Intro:
G     Dsus4          G/E       Cadd9

Verse:
G     Dsus4          G/E       Cadd9

Chorus:
G     Dsus4          G/E       Cadd9

Fill:
G     Dsus4          G/E       Cadd9


Interlude:

e|-----------------------|------------3--3--3-|-----------------------|--------------------|
b|-----------------------|------------3--3--3-|-----------------------|------------2--2--2-|
G|-----------------------|------------2--2--2-|-----------------------|------------2--2--2-|
D|-----------------------|------------0--0--0-|-----------------------|------------2--2--2-|
A|-2--2-2-2-2-2--2-2-2-2-|-2--2-2-2-2---------|-2--2-2-2-2-2--2-2-2-2-|-2--2-2-2-2-0--0--0-|
E|-3--0-0-0-0-3--0-0-0-0-|-3--0-0-0-0---------|-3--0-0-0-0-3--0-0-0-0-|-3--0-0-0-0---------|

e|-----------------------|------------3--3--3-|---------3-------3-----|
b|-----------------------|------------3--3--3-|---------3-------3-----|
G|-----------------------|------------2--2--2-|-0-------0-------2-----|
D|-----------------------|------------0--0--0-|-2-------0-------0-----|
A|-2--2-2-2-2-2--2-2-2-2-|-2--2-2-2-2---------|-2-------2-------------|
E|-3--0-0-0-0-3--0-0-0-0-|-3--0-0-0-0---------|-0-------3-------------|



Fill:
G     Dsus4          G/E       Cadd9

Verse:
G     Dsus4          G/E       Cadd9

Chorus:
G     Dsus4          G/E       Cadd9

Fill:
G     Dsus4          G/E       Cadd9


Interlude:

e|-----------------------|------------3--3--3-|-----------------------|--------------------|
b|-----------------------|------------3--3--3-|-----------------------|------------2--2--2-|
G|-----------------------|------------2--2--2-|-----------------------|------------2--2--2-|
D|-----------------------|------------0--0--0-|-----------------------|------------2--2--2-|
A|-2--2-2-2-2-2--2-2-2-2-|-2--2-2-2-2---------|-2--2-2-2-2-2--2-2-2-2-|-2--2-2-2-2-0--0--0-|
E|-3--0-0-0-0-3--0-0-0-0-|-3--0-0-0-0---------|-3--0-0-0-0-3--0-0-0-0-|-3--0-0-0-0---------|

e|-----------------------|------------3--3--3-|---------3-------3-----|
b|-----------------------|------------3--3--3-|---------3-------3-----|
G|-----------------------|------------2--2--2-|-0-------0-------2-----|
D|-----------------------|------------0--0--0-|-2-------0-------0-----|
A|-2--2-2-2-2-2--2-2-2-2-|-2--2-2-2-2---------|-2-------2-------------|
E|-3--0-0-0-0-3--0-0-0-0-|-3--0-0-0-0---------|-0-------3-------------|


Verse:
G     Dsus4          G/E       Cadd9

Chorus:
G     Dsus4          G/E       Cadd9


Interlude:

e|-----------------------|------------3--3--3-|-----------------------|--------------------|
b|-----------------------|------------3--3--3-|-----------------------|------------2--2--2-|
G|-----------------------|------------2--2--2-|-----------------------|------------2--2--2-|
D|-----------------------|------------0--0--0-|-----------------------|------------2--2--2-|
A|-2--2-2-2-2-2--2-2-2-2-|-2--2-2-2-2---------|-2--2-2-2-2-2--2-2-2-2-|-2--2-2-2-2-0--0--0-|
E|-3--0-0-0-0-3--0-0-0-0-|-3--0-0-0-0---------|-3--0-0-0-0-3--0-0-0-0-|-3--0-0-0-0---------|

e|-----------------------|------------3--3--3-|---------3-------3-----|
b|-----------------------|------------3--3--3-|---------3-------3-----|
G|-----------------------|------------2--2--2-|-0-------0-------2-----|
D|-----------------------|------------0--0--0-|-2-------0-------0-----|
A|-2--2-2-2-2-2--2-2-2-2-|-2--2-2-2-2---------|-2-------2-------------|
E|-3--0-0-0-0-3--0-0-0-0-|-3--0-0-0-0---------|-0-------3-------------|

Outro:
G 
Tap to rate this tab
# A B C D E F G H I J K L M N O P Q R S T U V W X Y Z