Song name
# A B C D E F G H I J K L M N O P Q R S T U V W X Y Z

Leftover Crack - Clear Channel tab

Leftover crack
Clear channel(fuck off)
Fuck World Trade
Standard E

Intro
e|-----------------------------------------------------------------------|
b|-----------------------------------------------------------------------|
G|-5-5-5-5-5-5-5-5-4-4-4-4-4-4-4-4---------------------------------------|
D|-x-x-x-x-x-x-x-x-x-x-x-x-x-x-x-x-2--2--2-2-2-2-2-2-2--2--2-2-2-2-2-2-2-|
A|-3-3-3-3-3-3-3-3-2-2-2-2-2-2-2-2-2--2--2-2-2-2-2-2-2--2--2-2-2-2-2-2-2-|
E|---------------------------------0--0--0-0-0-0-0-0-0--0--0-0-0-0-0-0-0-|

Album Intro, Part II 

e|--------------|
b|--------------|
G|--------------|
D|--------------|
A|-7-8----------|
E|-----00000000-|



Verse: 

[Guitar 1 
e|------------------------------------------|
b|------------------------------------------|
G|------------------------------------------|
D|-2-2--2-2-2-2-2--2--2-2-2-2-2--2--2-2-2-2-|
A|-2-2--2-2-2-2-2--2--2-2-2-2-2--2--2-2-2-2-|
E|-0-0--0-0-0-0-0--0--0-0-0-0-0--0--0-0-0-0-|
pm . . . . . . . . . . . . . . . . . .

[Guitar 2 
e|----------------------------------------------------------|
b|----------------------------------------------------------|
G|-(9)/10/9-9-9-9-9-9-9/10/9-9-9-9-9-9/10/9-9-9-9-9-9-9-9-9-|
D|-(x)--x-x-x-x-x-x-x-x--x-x-x-x-x-x-x--x-x-x-x-x-x-x-x-x-x-|
A|-(7)/-8/7-7-7-7-7-7-7/-8/7-7-7-7-7-7/-8/7-7-7-7-7-7-7-7-7-|
E|----------------------------------------------------------|

[Guitar 1&2 

e|-----------------------------------------|
b|-----------------------------------------|
G|-9-9-9-9-9-8-8-8-8-8-7-7-7-7-7-6-6-6-6-6-|
D|-9-9-9-9-9-8-8-8-8-8-7-7-7-7-7-6-6-6-6-6-|
A|-7-7-7-7-7-6-6-6-6-6-5-5-5-5-5-4-4-4-4-4-|
E|-----------------------------------------|

Interlude 
N.C.
e|-------------------------------------------------|
b|-------------------------------------------------|
G|-------------------------------------------------|
D|-----------------------%-------------------------|
A|-------------------------------------------------|
E|-------------------------------------------------|

Breakdown 
 Guitar 1&2

e|------------------------------------------------|
b|------------------------------------------------|
G|-9-9-9-9--17-17-16-16--11-11-11-11--14-14-12-12-|
D|-x-x-x-x---x--x--x--x---x--x--x--x---x--x--x--x-|
A|-7-7-7-7--15-15-14-14---9--9--9--9--12-12-10-10-|
E|------------------------------------------------|

[Guitar 1&2 

e|---------------------------------|
b|---------------------------------|
G|---------5-5-4-4-----------------|
D|-2-2-2-2-5-5-4-4-4-4-4-4-7-7-5-5-|
A|-2-2-2-2-3-3-2-2-4-4-4-4-7-7-5-5-|
E|-0-0-0-0---------2-2-2-2-5-5-3-3-|

[Guitar 2 
e|------------------------------------------------|
b|------------------------------------------------|
G|-9-9-9-9--17-17-16-16--11-11-11-11--14-14-12-12-|
D|-x-x-x-x---x--x--x--x---x--x--x--x---x--x--x--x-|
A|-7-7-7-7--15-15-14-14---9--9--9--9--12-12-10-10-|
E|------------------------------------------------|

[Guitar 1 
e|------------------------------------------------------------------|
b|------------------------------------------------------------------|
G|-----------------5-5-5-5-5-5-5-5-----------------7-7-7-7-7-7-9-10-|
D|-2-2-2-2-2-2-2-2-5-5-5-5-5-5-5-5-5-5-5-5-5-5-5-5-7-7-7-7-7-7-x--x-|
A|-2-2-2-2-2-2-2-2-3-3-3-3-3-3-3-3-5-5-5-5-5-5-5-5-5-5-5-5-5-5-7--8-|
E|-0-0-0-0-0-0-0-0-----------------3-3-3-3-3-3-3-3------------------|
pm . . . . . . . . . . . . . . . . . . . . . . . . . . . . .

e|------------------------------------------------------------------|
b|------------------------------------------------------------------|
G|-9~--------------17~-------------12~-------------7~---------------|
D|-x----------------x---------------x--------------x----------------|
A|-7~--------------15~-------------10~-------------5~---------------|
E|------------------------------------------------------------------|

Interlude 2 
[Guitar 1&2]
e|-------------------------------------------------------------------------|
b|----------4^4^4^4^----------4^4^4^4^----------4^4^4^4^----------4^4^4^4^-|
G|-------------------5--5-5-5----------------------------7--7-7-7----------|
D|-2--2-2-2----------5--5-5-5----------5--5-5-5----------7--7-7-7----------|
A|-2--2-2-2----------3--3-3-3----------5--5-5-5----------5--5-5-5----------|
E|-0--0-0-0----------------------------3--3-3-3----------------------------|

            
Tap to rate this tab
# A B C D E F G H I J K L M N O P Q R S T U V W X Y Z