Song name
# A B C D E F G H I J K L M N O P Q R S T U V W X Y Z

Leftover Crack - Nazi Whitetrash tab

Nazi White Trash(I Hate You)
Standard Tunning
Album Mediocre Generica
Artist L.O.C

intro
e|---------------------------------------------------------------------------------------------|
B|---------------------------------------------------------------------------------------------|
G|---------------------------------------------------------------------------------------------|
D|---------------------------------------------------------------------------------------------|
A|----7---7---7---7---7---7---7--7-------7---7---7---7------7---7---7---7-----7---7---7----7---|
E|--0---0---0---0---0---0---0---0------7---7---7---7------9---9---9---9----7----7---7---7------|


e|----------------------------------------------------|
B|----------------------------------------------------|
G|-------------------------------9--------------------|
D|--2--4--6--4---2---4---6---4---9x5-4---6---4--------|
A|--2~-2~-4~-2~--2x5-2x5-4x5-2x5-7---2x5-4x5-2x8------|
E|--0------------0------------------------------------|

ska verse:
e|--7x7x7x7x-7x7x7x7x-4x4x4x4x-7x7x7x7x--------------------------------|
B|--9x9x9x9x-7x7x7x7x-6x6x6x6x-7x7x7x7x--------------------------------|
G|--9x9x9x9x-8x8x8x8x-6x6x6x6x-8x8x8x8x----------The part after this uses a 
D|--9x9x9x9x-9x9x9x9x-6x6x6x6x-9x9x9x9x---(2x)---wa pedal but same thing 
A|--7x7x7x7x-9x9x9x9x-4x4x4x4x-9x9x9x9x--------------------------------|
E|-----------7x7x7x7x----------7x7x7x7x--------------------------------| 

chorus
e|--------------------------------------------------------|
B|--------------------------------------------------------|
G|---------6-------------9-------6----------------6-------|
D|--2--6---6---7---------9x3-6---6x3-7----2---6---6x3--7--|
A|--2x36x3-4x3-7x3--x2---7---6x3-4---7x3--2x3-6x3-4----7x8|
E|--0--4-------5-------------4-------5----0---4--------5--|

ska verse:
e|--7x7x7x7x-7x7x7x7x-4x4x4x4x-7x7x7x7x--------------------------------|
B|--9x9x9x9x-7x7x7x7x-6x6x6x6x-7x7x7x7x--------------------------------|
G|--9x9x9x9x-8x8x8x8x-6x6x6x6x-8x8x8x8x----------The part after this uses a 
D|--9x9x9x9x-9x9x9x9x-6x6x6x6x-9x9x9x9x---(2x)---wa pedal but same thing 
A|--7x7x7x7x-9x9x9x9x-4x4x4x4x-9x9x9x9x--------------------------------|
E|-----------7x7x7x7x----------7x7x7x7x--------------------------------|

chorus
e|-----------------------------------------------------------------|
B|-----------------------------------------------------------------|
G|---------6-------------9-------6----------------6----------------|
D|--2--6---6---7---------9x3-6---6x3-7----2---6---6x3--7----2------|
A|--2x36x3-4x3-7x3--x2---7---6x3-4---7x3--2x3-6x3-4----7x8--2-~~~~-|
E|--0--4-------5-------------4-------5----0---4--------5----0------|


One Of Us Will Be Betrayed Part
e|-----------3--------------3-------2------------2----------------|
B|---------3---3-----------3-------2--2---------2-----------------|
G|-------4-------4--------4-------3-----3------3------------------|
D|-----5-----------5-----5--x2---4--------4---4---x2--------------|
A|---5------------------5-------4------------4--------------------|
E|-3-------------------3-------2------------2---------------------|


Fast Part
e|--------------------------------------------------------|
B|--------------------------------------------------------|
G|---------6-------------9-------6----------------6-------|
D|--2--6---6---7---------9x3-6---6x3-7----2---6---6x3--7--|
A|--2x36x3-4x3-7x3--x5---7---6x3-4---7x3--2x3-6x3-4----7x8|
E|--0--4-------5-------------4-------5----0---4--------5--|


e|---------------------------------------|
B|---------------------------------------|
G|---------6-----------------------------|
D|--2--6---6---7----------2--------------|
A|--2x36x3-4x3-7x3--x4----2-~~~~~~-------|
E|--0--4-------5----------0--------------|
pm---------------------

e|-------------------------------------------------------------------------------|
B|-------------------------------------------------------------------------------|
G|-------------------------------------------------------------------------------|
D|---7-------7-------7-------7--------7-------7------7-----7-------7-------7-----|
A|-7---7---7---7---7---7----7--7----7---7---7---7---7--7--7--7---7---7----7--7---|
E|0-------0-------0--------0-------7-------7-------9-----9------7--------7-------|

 
e|---------------------------------------|
B|---------------------------------------|
G|---------------------------------------|
D|2---4---6---4---4-2--------------------|
A|2~~~2~~~4~~~2~~~2-2~~~-----------------|
E|0-----------------0--------------------|


It May Be A Little Off But This Is The Best I Can Do
Tap to rate this tab
 
# A B C D E F G H I J K L M N O P Q R S T U V W X Y Z