Song name
# A B C D E F G H I J K L M N O P Q R S T U V W X Y Z

Leftover Crack - Jesus Has A Place For Me tab

Help us improve GuitareTab! Take a short survey!
Jesus Has A Place For Me Rock The 40oz
Standard Tunning
Album:Fuck World Trade
Artist:L.O.C



Guitar 1
e|----------------------------------------------|
B|----------------------------------------------|
G|--9---5---------------------------------------|
D|--9x5-5x5-5-----------------------------------|
A|--7---3---5x5---------------------------------|
E|----------3-----------------------------------|x4

Guitar 2 There's Feedback Before Playing
e|--------------------------------------------------------------|
B|--------------------------------------------------------------|
G|--9------14---16---9----5----------9----5-----12----14--16----|
D|--x-~~~~-x----x----x-x4-x-x4-5-----x-x4-x-x4--x--x4-x---x-----|
A|--7------12---14---7----3----x-x4--7----3-----10----12--14----|
E|--------------------------------------------------------------|


Guitar 1
e|---------------------------------------------|
B|---------------------------------------------|
G|--9---5-------------9-----5------5-----------|
D|--9x4-5x45----------9-x4--5-x4---x-5-5-------|
A|--7---3--5x4---x3---7-----3------3---x--x3---|
E|---------3---------------------------3-------|
pm------------------------------

Guitar 2
e|--------7-x8---10 x8--8-x4--7-x4--------10--12-14~~~|
B|--8-x8---------------------------x3--8--------------|
G|----------------------------------------------------|
D|----------------------------------------------------|
A|----------------------------------------------------|
E|----------------------------------------------------|
pm---------------------------------

Guitar 1
e|---------------------------------------------|
B|---------------------------------------------|
G|-----7---4-------5---4-----------------------|
D|-5---7x5-4x5-5---5x5-4x5------x2-------------|
A|-5x5-5---2---5x5-3---2-----------------------|
E|-3-----------3-------------------------------|

Guitar 2
e|---------------------------------------------|
B|---------------------------------------------|
G|-12---7----5---------------------------------|
D|-x-x5-x-x5-x-x5---x2-------------------------|
A|-10---5----3---------------------------------|
E|---------------------------------------------|

Guitar 1 The X's Is The Palm Muting On This Part
e|---------------------------------------------------|
B|---------------------------------------------------|
G|---------------------------------------------------|
D|-5---5---5---4---4---4---5---5---5---4----4-5-7----|
A|-3x6-3x6-3x6-2x6-2x6-2x6-3x6-3x6-3x6-2x8--2-3-5----|
E|---------------------------------------------------|


Guitar 2 The X's Is The Palm Muting On This Part
e|---------------------------------------------------|
B|---------------------------------------------------|
G|---------------------------------------------------|
D|-5---5---5---4---4---4---5---5---5---4----4-5-7----|
A|-3x6-3x6-3x6-2x6-2x6-2x6-3x6-3x6-3x6-2x8--2-3-5----|
E|---------------------------------------------------|

Guitar 1
e|---------------------------------------------|
B|---------------------------------------------|
G|--9---5-------------9-----5------5-----------|
D|--9x4-5x45----------9-x4--5-x4---x-5-5-------|
A|--7---3--5x4---x3---7-----3------3---x--x3---|
E|---------3---------------------------3-------|
pm------------------------------

Guitar 2
e|--------7-x8---10 x8--8-x4--7-x4--------10--12-14~~~|
B|--8-x8---------------------------x3--8--------------|
G|----------------------------------------------------|
D|----------------------------------------------------|
A|----------------------------------------------------|
E|----------------------------------------------------|
pm---------------------------------

Guitar 1
e|---------------------------------------------------------------|
B|---------------------------------------------------------------|
G|-----7---4-----5-7------5---4---4-5------7---4-------5---4-----|
D|-5---7x5-4-x3--x-x--5---5x5-4x5-x-x--5---7x5-4x5-5---5x5-4x5---|
A|-5x5-5---2-----3-5--5x5-3---2---2-3--5x5-5---2---5x5-3---2-----|
E|-3------------------3----------------3-----------3-------------|

Guitar 2
e|---------------------------------------------|
B|---------------------------------------------|
G|-12---7----5---------------------------------|
D|-x-x5-x-x5-x-x5---x2-------------------------|
A|-10---5----3---------------------------------|
E|---------------------------------------------|

Guitar 1 The X's Is The Palm Muting On This Part
e|---------------------------------------------------|
B|---------------------------------------------------|
G|---------------------------------------------------|
D|-5---5---5---4---4---4---5---5---5---4----4-5-7----|
A|-3x6-3x6-3x6-2x6-2x6-2x6-3x6-3x6-3x6-2x8--2-3-5----|
E|---------------------------------------------------|


Guitar 2 The X's Is The Palm Muting On This Part
e|---------------------------------------------------|
B|---------------------------------------------------|
G|---------------------------------------------------|
D|-5---5---5---4---4---4---5---5---5---4----4-5-7----|
A|-3x6-3x6-3x6-2x6-2x6-2x6-3x6-3x6-3x6-2x8--2-3-5----|
E|---------------------------------------------------|



That's The Whole Song The Ending Is This Part Below
e|---------------------------------------------------|
B|---------------------------------------------------|
G|---------------------------------------------------|
D|-5---5---5---4---4---4---5---5---5---4----4-5-7----|
A|-3x6-3x6-3x6-2x6-2x6-2x6-3x6-3x6-3x6-2x8--2-3-5----|
E|---------------------------------------------------|
But All Palm Muted Very Easy Song Enjoy =)




Related for Jesus Has A Place For Me tab