Song name
# A B C D E F G H I J K L M N O P Q R S T U V W X Y Z

Leftover Crack - Baby Punchers tab

-------------------------------------------------------------------------------
			     BABY-PUNCHERS - Leftöver Crack
-------------------------------------------------------------------------------
Tabbed by: Shza
Email: nobody2213@hotmail.com

Tuning: EADGBe

INTRO:

Guitar I:

e|---------------------------------------------------------------|
B|---------------------------------------------------------------|
G|-9-9-9-9-9-9-9-9--9-9-9-9-11-11-11-11-13-13-13-13-11-11-11-11--|
D|-x-x-x-x-x-x-x-x--x-x-x-x-xx--x--x--x--x--x--x--x--x--x--x--x--|
A|-7-7-7-7-7-7-7-7--7-7-7-7--9--9--9--9-11-11-11-11--9--9--9--9--|
E|---------------------------------------------------------------|

e|--------------------------------------------------|
B|--------------------------------------------------|
G|-13-13-13-13-14-14-14-14-16-16-16-16-14-14-14-14--|
D|--x--x--x--x--x--x--x--x--x--x--x--x--x--x--x--x--|
A|-11-11-11-11-12-12-12-12-14-14-14-14-12-12-12-12--|
E|--------------------------------------------------|


e|--------------------------------------------------|
B|--------------------------------------------------|
G|-16-16-16-16-18-18-18-18-16-16-16-16-14-14-14-14--|
D|--x--x--x--x--x--x--x--x--x--x--x--x--x--x--x--x--|
A|-14-14-14-14-16-16-16-16-14-14-14-14-12-12-12-12--|
E|--------------------------------------------------|

e|--------------------------------------------|
B|--------------------------------------------|
G|-13-13-13-13-11-11-11-11-9-9-9-9-9-9-9-9-9--|
D|--x--x--x--x--x--x--x--x-x-x-x-x-x-x-x-x-x--|
A|-11-11-11-11--9--9--9--9-7-7-7-7-7-7-7-7-7--|
E|--------------------------------------------|

Guitar II: (Over and over again)
e|---|
B|---|
G|---|
D|-9-|
A|-9-|
E|-7-|

VERSE:

Guitar I:
e|-77x7x7x7--9-9-9-9-9-77x7x7x7--9-9-9-9-9--|
B|-77x7x7x7-1111111111-99x9x9x9-1111111111--|
G|-88x8x8x8-1111111111-99x9x9x9-1111111111--|
D|-99x9x9x9---------------------------------|
A|------------------------------------------|
E|------------------------------------------|

Guitar II: (Just at the beginning)
e|----------------------------|
B|----------------------------|
G|-9\4----------14~\12-14-16--|
D|-x\x-----------x~\-x--x--x--|
A|-7\2----------12~\10-12-14--|
E|----------------------------|

CHORUS:

Guitar I:

e|-------------------------------------------------------|
B|-------------------------------------------------------|
G|-999-111111-131313-141414-161616-181818-202020-212121--|
D|-xxx--x-x-x--x-x-x--x-x-x--x-x-x--x-x-x--x-x-x--x-x-x--|
A|-777--9-9-9-111111-121212-141414-161616-181818-191919--|
E|-------------------------------------------------------|

Guitar II:
e|------------------------------|
B|------------------------------|
G|-999---------666--------------|
D|-999-999-777-666-666-777-999--|
A|-777-999-777-444-666-777-999--|
E|-----777-555-----444-555-777--|

Blah-Blah Rant! Part:

Guitar I:
(Arpeggiate and occasionally play whole chord)
e|-7----------|
B|-9----------|
G|-9---13-14--|
D|-9---11-12--|
A|-7---11-12--|
E|------------|

Guitar II:
e|----|
B|----|
G|-9--|
D|-9--|
A|-7--|
E|----|
Play that a lot then:
(this might be Guitar I, in which case Guitar II continues that same power chord but to 
rhythm of the snare drum... or that might be my speakers being shitty and distorting the 
drum)
e|-----------------------|
B|-----------------------|
G|-9-14-9-14-21-14-9-14--|
D|-x--x-x--x--x--x-x--x--|
A|-7-12-7-12-19-12-7-12--|
E|-----------------------|
(each chord like 10 times.

Outro:
Guitar I:

e|--------------------|
B|--------------------|
G|-999999999-------9--|
D|-xxxxxxxxx-------x--|
A|-777777777-------7--|
E|--------------------|

Guitar II:
e|--------------------|
B|--------------------|
G|--------------------|
D|-999999999-------9--|
A|-999999999-------9--|
E|-777777777-------7--|

| /  slide up
| \  slide down
| h  hammer-on
| p  pull-off
| ~  vibrato
| +  harmonic
| x  Mute note
===============================================================================
Tap to rate this tab
# A B C D E F G H I J K L M N O P Q R S T U V W X Y Z