Song name
# A B C D E F G H I J K L M N O P Q R S T U V W X Y Z

Leftover Crack - World War 4 tab

World War 4 - Leftover Crack
Deadline Split
Tabbed by: Franchise - stevopar@gmail.com

Tuned 1/2 step down

||Chords
  E         A       B    C#m    
e|0----7----5------|7----4-----------|
B|0----9----5------|7----5-----------|
G|1----9----6------|8----6-----------|
D|2-or-9----7------|9----6-----------|
A|2----7----7------|9----4-----------|
E|0---------5------|7----------------|

||Intro
|Guitar 1 
e|4---------------|5---------------|4---------------|2---------------|
B|---5------------|---5------------|---5------------|---4------------|
G|-------4--------|------4---------|------4---------|------4---------|
D|----------------|----------------|----------------|----------------|
A|----------------|----------------|----------------|----------------|
E|----------------|----------------|----------------|----------------|

e|4---------------|7---------------|4---------------|2---------------|
B|---5------------|---5------------|---5------------|---4------------|
G|------4---------|------4---------|------4---------|------4/2-------|
D|----------------|----------------|----------------|----------------|
A|----------------|----------------|----------------|----------------|
E|----------------|----------------|----------------|----------------|

|Guitar 2
B|----------------|
G|/9--------------|
D|-x--------------|
A|/7--------------|
E|----------------|

||Riff 1
e|--------------------------------|--------------------------------|
B|--------------------------------|--------------------------------|
G|--------------------------------|--------------------------------| 
D|--------------------------------|--------------------------------|
A|----7---6---6h7-----7---6---6h7-|4-4-6---7---6h7-----7---6---6h7-|
E|0-0---0---0-----0-0---0---0-----|----------------5-5---5----5----|
x2 end on A last time

||Verse
|Guitar 1
E                          C#m
After bombs are dropped to kill 
      A                 E
After all the buildings fall 
                           C#m
At the time we'll have the will 
         A                  E
To climb up from beneath it all 
                           C#m
We'll find tha strength to live 
   A                 E
To Rebuild something new 
                   C#m
If theres anything forgive
A                D# octave
What else can we do 

e|----------------|
B|----------------|
G|8---------------|
D|x---------------|
A|6---------------|
E|----------------|

|Guitar 2 - octave leads
e|--------------------------------|--------------------------------|
B|--------------------------------|--------------------------------|
G|------------------------9---11--|--------9---11----------9---8---|
D|------------------------x---x---|--------x---x-----------x---x---|
A|------------------------7---9---|--------7---9-----------7---6---|
E|--------------------------------|--------------------------------|
x2 2nd time end is held

||Chorus
|Guitar 1
              E              C#m
I don't wanna fight yer war (fight ye war)
              E               C#m
I don't wanna play yer games (play yer games)
                 E            C#m
Forget about tha world war 4 (world war 4)
            E             C#m
Weapons are at tha store (at the store)

|Guitar 2 - leads
e|--------------------------------|--------------------------------|
B|--------------------------------|--------------------------------|
G|------------------------8--/9---|------------------------13-/14--|
D|------2-2-2-1-1-1-------x---x---|------7-7-7-6-6-6-------x---x---|
A|------------------2-2-2-6--/7---|4-4-4-------------7-7-7-11-/12--|
E|0-0-0---------------------------|--------------------------------|

||Riff 1 - same

||Verse
So were forming to our cliques 
we will destroy all tha clocks 
and our weapons will be sticks 
and tha other side has rocks 
and we'll clash over petty shit 
but remember all tha lies 
that are owning up to it 
and bomb tha world tonight 

||Chorus
I don't wanna fight yer war 
I don't wanna play yer games 
Forget about tha world war 4 
Weapons are at tha store 

||Intro - only first half

||Bridge
|Same riff alternating roots from: E - A - C#m - B 
e|--------------------------------|--------------------------------|
B|--------------------------------|--------------------------------|
G|--------------------------------|--------------------------------| 
D|--------------------------------|--------------------------------|
A|----7---6---6h7-----7---6---6h7-|----7---6---6h7-----7---6---6h7-|
E|0-0---0---0-----0-0---0---0-----|0-0---0---0-----0-0---0---0-----|

e|--------------------------------|--------------------------------|
B|--------------------------------|--------------------------------|
G|--------------------------------|--------------------------------| 
D|--------------------------------|--------------------------------|
A|----7---6---6h7-----7---6---6h7-|----7---6---6h7-----7---6---6h7-|
E|5-5---5---5-----5-5---5---5-----|5-5---5---5-----5-5---5---5-----|

e|--------------------------------|--------------------------------|
B|--------------------------------|--------------------------------|
G|--------------------------------|--------------------------------| 
D|--------------------------------|--------------------------------|
A|----7---6---6h7-----7---6---6h7-|----7---6---6h7-----7---6---6h7-|
E|9-9---9---9-----9-9---9---9-----|9-9---9---9-----9-9---9---9-----|

e|--------------------------------|--------------------------------|
B|--------------------------------|--------------------------------|
G|--------------------------------|--------------------------------| 
D|--------------------------------|--------------------9-9-8-8-6-6-|
A|----7---6---6h7-----7---6---6h7-|----7---6---6h7-----------------|
E|7-7---7---7-----7-7---7---7-----|7-7---7---7-----7-7-------------|
Followed by chorus

Lost in tha news 
something something 
in a nuclear winter 
and an acid rain 
cause of all of this 
there will be no more 
fuck your politics 
no world war four 

||Chorus
no world war 4 
forget about tha world war 4 
there's gotta be something more 
no world war 4 
no world war 4 

End on E chord

-latez
Tap to rate this tab
 
# A B C D E F G H I J K L M N O P Q R S T U V W X Y Z