Song name
# A B C D E F G H I J K L M N O P Q R S T U V W X Y Z

Leftover Crack - Operation Move tab

im juss givin u tha intro cuz after that u can find out tha rest by yrself. there almost 
the same chords
all the chords ull need r
Am
Dm
G
F
Em.

Intro
(i think it sounds better if u finger pic these chords on a classical guitar)
    Am              Dm      G            Dm     F          Dm   Em
e-------------------1--------------------1----------------1------------------|
B---1----1----1----3-3---3----3----3----3-3---1--1--1----3-3---0---0---0---1-|
G--2-2--2-2--2-2--2-------0----0----0--2-------2--2--2--2-------0---0---0--2-|
D-2----2----2--------------------------------------------------------------2-|
A-----------------------2----2----2----------3--3--3----------2---2---2------|
E----------------------3----3----3----------1--1--1----------0---0---0-------|
just repeat that untill u hear the change [Let's call it Change 1]
Which is:
Em F and G
  Em       F        G
e-0-0-0-0--1-1-1-1--3-3-3-3-------------------------------------------------|
B-0-0-0-0--1-1-1-1--3-3-3-3-------------------------------------------------|
G-0-0-0-0--2-2-2-2--4-4-4-4--------(4x and then into verse)-----------------|
D-2-2-2-2--3-3-3-3--5-5-5-5-------------------------------------------------|
A-2-2-2-2--3-3-3-3--5-5-5-5-------------------------------------------------|
E-0-0-0-0--1-1-1-1--3-3-3-3-------------------------------------------------|

im not so sure about the notes
but it cant be to hard to figure out on ur own
the mid verse lil riff goes a lil like
riff 1
e---------------------------------------------------------------------------|
B---------------------------------------------------------------------------|
G-9-9-9--9-9-9--9-9-9--10-10-10--7-7-7--7-7-7--7-7-7--9-9-9--5-5-5--5-5-5---|
D---------------------------------------------------------------------------|
A-7-7-7--7-7-7--7-7-7--8--8--8---5-5-5--5-5-5--5-5-5--7-7-7--3-3-3--3-3-3---|
E---------------------------------------------------------------------------|

e---------------------------------------------------------------------------|
B---------------------------------------------------------------------------|
G-5-5-5--7-7-7--4-4-4--4-4-4--4-4-4--2-2-2----------------------------------|
D---------------------------------------------------------------------------|
A-3-3-3--5-5-5--2-2-2--2-2-2--2-2-2--0-0-0----------------------------------|
E---------------------------------------------------------------------------|
Repeat this little riff until "change 1" comes in again
then repeat the:
Em F G while Palm muting.

thats prety much the whole song

heres a quick over view
Violins
Intro
Change 1
Palm Muted Change 1( Em F G are the chords being palm muted in the bkgrnd)
Riff 1
Change 1
Palm muted Change 1
Riff 1
Voilins
if u got any problems with this tab hit me up at
onedeadcop23@yahoo.com
Tap to rate this tab
 
# A B C D E F G H I J K L M N O P Q R S T U V W X Y Z