Song name
# A B C D E F G H I J K L M N O P Q R S T U V W X Y Z

Leftover Crack - With The Sickness tab

Help us improve GuitareTab! Take a short survey!
-------------------------------------------------------------------------------
With The Sickness - Leftover Crack
-------------------------------------------------------------------------------
Tabbed by: axeslash
Email: holmzito@yahoo.com

Tuning: 
Guitar 1: EADGBE Shitload of fuzz distortion.
Guitar 2: EADGBE Regular overdrive sound, louder than guitar 1.

Guitar 1:
e|---------------------------------------------------------------------|
B|---------------------------------------------------------------------|
G|-9-------------9-------------9---------------------------------------|
D|-9-9-9-9-9-9-9-9-9-9-9-9-9-9-9-9-9-8-------------8-------------8-----|
A|-7-7-7-7-7-7-7-7-7-7-7-7-7-7-7-7-7-8-8-8-8-8-8-8-8-8-8-8-8-8-8-8-8-8-|
E|--[x-x-x-x-x-x]-[x-x-x-x-x-x]-[x-x]6-6-6-6-6-6-6-6-6-6-6-6-6-6-6-6-6-|
                                      [x-x-x-x-x-x] [x-x-x-x-x-x] [x-x]
Guitar 1:
e|---------------------------------------------------------------------|
B|---------------------------------------------------------------------|
G|-9-------------9-------------9---------------------------------------|
D|-9-9-9-9-9-9-9-9-9-9-9-9-9-9-9-9-9-8-------------8-------------8-----|
A|-7-7-7-7-7-7-7-7-7-7-7-7-7-7-7-7-7-8-8-8-8-8-8-8-8-8-8-8-8-8-8-8-8-8-|
E|--[x-x-x-x-x-x]-[x-x-x-x-x-x]-[x-x]6-6-6-6-6-6-6-6-6-6-6-6-6-6-6-6-6-|
                                      [x-x-x-x-x-x] [x-x-x-x-x-x] [x-x]
Guitar 2:
e|---------------------------------------------------------------------|
B|---------------------------------------------------------------------|
G|---------------------------------------------------------------------|
D|-----------------------------------8----8----8----8--------8---------|
A|-----------------------------------8----8----8----8--------8---------|
E|-----------------------------------6----6----6----6--------6---------|

Guitar 1:
e|---------------------------------------------------------------------|
B|---------------------------------------------------------------------|
G|-9-------------9-------------9---------------------------------------|
D|-9-9-9-9-9-9-9-9-9-9-9-9-9-9-9-9-9-8-------------8-------------8-----|
A|-7-7-7-7-7-7-7-7-7-7-7-7-7-7-7-7-7-8-8-8-8-8-8-8-8-8-8-8-8-8-8-8-8-8-|
E|--[x-x-x-x-x-x]-[x-x-x-x-x-x]-[x-x]6-6-6-6-6-6-6-6-6-6-6-6-6-6-6-6-6-|
                                      [x-x-x-x-x-x] [x-x-x-x-x-x] [x-x]
Guitar 2:
e|---------------------------------------------------------------------|
B|---------------------------------------------------------------------|
G|-9-------------------------------------------------------------------|
D|-9-------------------------------------------------------------------|
A|-7-------------------------------------------------------------------|
E|---------------------------------------------------------------------|

Guitar 1:
e|---------------------------------------------------------------------|
B|---------------------------------------------------------------------|
G|-9-------------9-------------9---------------------------------------|
D|-9-9-9-9-9-9-9-9-9-9-9-9-9-9-9-9-9-8-------------8-------------8-----|
A|-7-7-7-7-7-7-7-7-7-7-7-7-7-7-7-7-7-8-8-8-8-8-8-8-8-8-8-8-8-8-8-8-8-8-|
E|--[x-x-x-x-x-x]-[x-x-x-x-x-x]-[x-x]6-6-6-6-6-6-6-6-6-6-6-6-6-6-6-6-6-|
                                      [x-x-x-x-x-x] [x-x-x-x-x-x] [x-x]
Guitar 2:
e|---------------------------------------------------------------------|
B|---------------------------------------------------------------------|
G|---------------------------------------------------------------------|
D|-----------------------------------8----8----8----8--------8---------|
A|-----------------------------------8----8----8----8--------8---------|
E|-----------------------------------6----6----6----6--------6---------|

Guitar 1 & 2:
e|---------------------------------------------------------------------|
B|---------------------------------------------------------------------|
G|-9-------------9-------------9---------------------------------------|
D|-9-9-9-9-9-9-9-9-9-9-9-9-9-9-9-9-9-8-------------8-------------8-----|
A|-7-7-7-7-7-7-7-7-7-7-7-7-7-7-7-7-7-8-8-8-8-8-8-8-8-8-8-8-8-8-8-8-8-8-|
E|--[x-x-x-x-x-x]-[x-x-x-x-x-x]-[x-x]6-6-6-6-6-6-6-6-6-6-6-6-6-6-6-6-6-| x4
                                      [x-x-x-x-x-x] [x-x-x-x-x-x] [x-x]

Guitars 1 & 2:
e|--------------------------------------------------------------------------------------------|
B|-----------------15-15-15-15-15-15-15-15-16-16-16-16-16-16-16-16-16-15-15-15-15-15-15-15-15-|
G|-9-9-9-9-9-9-9-9-15-15-15-15-15-15-15-15-16-16-16-16-16-16-16-16-16-15-15-15-15-15-15-15-15-|
D|-9-9-9-9-9-9-9-9-15-15-15-15-15-15-15-15-16-16-16-16-16-16-16-16-16-15-15-15-15-15-15-15-15-|
A|-7-7-7-7-7-7-7-7-13-13-13-13-13-13-13-13-14-14-14-14-14-14-14-14-14-13-13-13-13-13-13-13-13-|
E|--------------------------------------------------------------------------------------------| x2

Guitar 1:
e|---------------------------------------------------------------------|
B|---------------------------------------------------------------------|
G|-9-------------9-------------9---------------------------------------|
D|-9-9-9-9-9-9-9-9-9-9-9-9-9-9-9-9-9-8-------------8-------------8-----|
A|-7-7-7-7-7-7-7-7-7-7-7-7-7-7-7-7-7-8-8-8-8-8-8-8-8-8-8-8-8-8-8-8-8-8-|
E|--[x-x-x-x-x-x]-[x-x-x-x-x-x]-[x-x]6-6-6-6-6-6-6-6-6-6-6-6-6-6-6-6-6-|
                                      [x-x-x-x-x-x] [x-x-x-x-x-x] [x-x]
Guitar 2:
e|---------------------------------------------------------------------|
B|---------------------------------------------------------------------|
G|-9-------------------------------------------------------------------|
D|-9-------------------------------------------------------------------|
A|-7-------------------------------------------------------------------|
E|---------------------------------------------------------------------|

Guitar 1:
e|---------------------------------------------------------------------|
B|---------------------------------------------------------------------|
G|-9-------------9-------------9---------------------------------------|
D|-9-9-9-9-9-9-9-9-9-9-9-9-9-9-9-9-9-8-------------8-------------8-----|
A|-7-7-7-7-7-7-7-7-7-7-7-7-7-7-7-7-7-8-8-8-8-8-8-8-8-8-8-8-8-8-8-8-8-8-|
E|--[x-x-x-x-x-x]-[x-x-x-x-x-x]-[x-x]6-6-6-6-6-6-6-6-6-6-6-6-6-6-6-6-6-|
                                      [x-x-x-x-x-x] [x-x-x-x-x-x] [x-x]
Guitar 2:
e|---------------------------------------------------------------------|
B|---------------------------------------------------------------------|
G|---------------------------------------------------------------------|
D|-----------------------------------8----8----8----8--------8---------|
A|-----------------------------------8----8----8----8--------8---------|
E|-----------------------------------6----6----6----6--------6---------|

Guitar 1:
e|---------------------------------------------------------------------|
B|---------------------------------------------------------------------|
G|-9-------------9-------------9---------------------------------------|
D|-9-9-9-9-9-9-9-9-9-9-9-9-9-9-9-9-9-8-------------8-------------8-----|
A|-7-7-7-7-7-7-7-7-7-7-7-7-7-7-7-7-7-8-8-8-8-8-8-8-8-8-8-8-8-8-8-8-8-8-|
E|--[x-x-x-x-x-x]-[x-x-x-x-x-x]-[x-x]6-6-6-6-6-6-6-6-6-6-6-6-6-6-6-6-6-|
                                      [x-x-x-x-x-x] [x-x-x-x-x-x] [x-x]
Guitar 2:
e|---------------------------------------------------------------------|
B|---------------------------------------------------------------------|
G|-9-------------------------------------------------------------------|
D|-9---------------------------------8---------------------------------|
A|-7---------------------------------8---------------------------------|
E|-----------------------------------6---------------------------------|

Guitar 1:
e|---------------------------------------------------------------------|
B|---------------------------------------------------------------------|
G|-9-------------9-------------9---------------------------------------|
D|-9-9-9-9-9-9-9-9-9-9-9-9-9-9-9-9-9-8-------------8-------------8-----|
A|-7-7-7-7-7-7-7-7-7-7-7-7-7-7-7-7-7-8-8-8-8-8-8-8-8-8-8-8-8-8-8-8-8-8-|
E|--[x-x-x-x-x-x]-[x-x-x-x-x-x]-[x-x]6-6-6-6-6-6-6-6-6-6-6-6-6-6-6-6-6-|
                                      [x-x-x-x-x-x] [x-x-x-x-x-x] [x-x]
Guitar 2:
e|---------------------------------------------------------------------|
B|---------------------------------------------------------------------|
G|-9-------------------------------------------------------------------|
D|-9---------------------------------8----8----8----8--------8---------|
A|-7---------------------------------8----8----8----8--------8---------|
E|-----------------------------------6----6----6----6--------6---------|

Guitars 1 & 2: 
e|--------------------------------------------------------------------------------------------|
B|-----------------15-15-15-15-15-15-15-15-16-16-16-16-16-16-16-16-16-15-15-15-15-15-15-15-15-|
G|-9-9-9-9-9-9-9-9-15-15-15-15-15-15-15-15-16-16-16-16-16-16-16-16-16-15-15-15-15-15-15-15-15-|
D|-9-9-9-9-9-9-9-9-15-15-15-15-15-15-15-15-16-16-16-16-16-16-16-16-16-15-15-15-15-15-15-15-15-|
A|-7-7-7-7-7-7-7-7-13-13-13-13-13-13-13-13-14-14-14-14-14-14-14-14-14-13-13-13-13-13-13-13-13-|
E|--------------------------------------------------------------------------------------------| x2

Guitars 1 & 2:
e|----|         Fuck you!
B|----|         Yeah!
G|-9--|         Who stole the money from the house fund?
D|-9--|         Was it the coconut man?
A|-7--|         FUCK THE COCONUT MAN!!!!
E|----|

| [x]  palm mute
|  /   slide up
|  \   slide down
|  h   hammer-on
|  p   pull-off
|  ~   vibrato
|  +   harmonic
|  x   Mute note
===============================================================================
Related for With The Sickness tab