Song name
# A B C D E F G H I J K L M N O P Q R S T U V W X Y Z

Legend - Circle Of Friends tab

LEGEND

CIRCLE oF FRIENDS

A-E-A-D-F#-B

TABBED BY andherembrace


----------------------------------------------|
----------------------------------------------|
----------------------------------------------|
---------------------)------------------)-----|
--------------------4------------------3------|
-0-0-0-0000-1-0-0-0----000-0-0-1-0-0-0--------|
   *   ****   *   *    ***   *   *   *         

----------------------------------------------|
----------------------------------------------|
----------------------------------------------|
---------------------)------------------------|
--------------------5--------------3----------|
-0-0-0-0000-1-0-0-0----000-0-0-1-0---0-4------|
   *   ****   *   *    ***   *   *   *

----------------------------------------------|
----------------------------------------------|
----------------------------------------------|
---------------------)------------------)-----|
--------------------4------------------3------|
-0-0-0-0000-1-0-0-0----000-0-0-1-0-0-0--------|
   *   ****   *   *    ***   *   *   *         

----------------------------------------------|
----------------------------------------------|
----------------------------------------------|
---------------------)------------------------|
--------------------5--------------3----------|
-0-0-0-0000-1-0-0-0----000-0-0-1-0---0-4------|
   *   ****   *   *    ***   *   *   *

0:14

------------------------------------------------------------------|
------------------------------------------------------------------|
------------------------------------------------------------------|
------------------------------------------------------------------|
---------------------------------------------------------0--0--00-|
-0-00-00000-00-00--0000-00-00-000-0-00-00000-00-00-0000-01-01-011-|
   ** ***** ** **  **** ** ** ***   ** ***** ** ** **** ** ** ***    

------------------------------------------------------------------|
------------------------------------------------------------------|
------------------------------------------------------------------|
------------------------------------------------------------------|
---------------------------------------------------------0--0--00-|
-0-00-00000-00-00--0000-00-00-000-0-00-00000-00-00-0000-01-01-011-|
   ** ***** ** **  **** ** ** ***   ** ***** ** ** **** ** ** ***    

0:28
----------------------------------------------|
----------------------------------------------|
----------------------------------------------|
---------------------)------------------)-----|
--------------------4------------------3------|
-0-0-0-0000-1-0-0-0----000-0-0-1-0-0-0--------|
   *   ****   *   *    ***   *   *   *         

----------------------------------------------|
----------------------------------------------|
----------------------------------------------|
---------------------)------------------------|
--------------------5--------------3----------|
-0-0-0-0000-1-0-0-0----000-0-0-1-0---0-4------|
   *   ****   *   *    ***   *   *   *


0:35

-bend in front of nut--------------------------------------------|
-----------------------------------------------------------------|
-----------------------------------------------------------------|
-----------------------------------------------------------------|
--)(-5------)(-4------)(-4------)(-5------)(-4------)(-4-----4-4-|
-0-----0-0-0-----0-0-0-----0-0-0-----0-0-0-----0-0-0-----0-0-----|
         *         *         *         *         *         *   

-bend in front of nut--------------------------------------------|
-----------------------------------------------------------------|
-----------------------------------------------------------------|
-----------------------------------------------------------------|
--)(-5------)(-4------)(-4------)(-5------)(-4------)(-4-----4-4-|
-0-----0-0-0-----0-0-0-----0-0-0-----0-0-0-----0-0-0-----0-0-----|
         *         *         *         *         *         *  

0:49

---------------------------------------------------------|
---------------------------------------------------------|
---------------------------------------------------------|
---------------------------------------------------------|
----5-----)(--5-----)(----4-------4-----)(--4--------4---|
-0----0--0------0--0----0----0--0---0--0------0--0-0-----|
                                *                  *

-----------------------------------------------------------|
-----------------------------------------------------------|
-----------------------------------------------------------|
-----------------------------------------------------------|
----5-----)(--5-----)(----4-------4-----)(--4--------4---5-|
-0----0--0------0--0----0----0--0---0--0------0--0-0---0--0|
                                *                  *

1:06
---------------------------------------------------------------|
---------------------------------------------------------------|
---------------------------------------------------------------|
--------------------------------------------let ring-----------|
--)(-4-------------------5-------)(--4----0--------------------|
-0-----0--0-----------0---0|----0------0--0--------------------|
  
                                       *
1:16
---------------------------------------------------------------|
---------------------------------------------------------------|
----------------------------2nd fret-abouts--------------------|
---------------------------------------------------------------|
-0-00----0-00---------0-00--xxxxxxx-0-00-----------------------|
-1-11----1-11--0------1-11--xxxxxxx-1-11--0--------------------|
 * **      **         * **          * **  

---------------------------------------------------------------|
---------------------------------------------------------------|
---------------------------------------------------------------|
---------------------------------------------------------------|
-0-00----0-00---------0-00--xxxxxxx-0-00-----------------------|
-1-11----1-11--0------1-11--xxxxxxx-1-11--0------------------0||
 * **      **         * **          * **  


1:41
-------------------------------------------|
-------------------------------------------|
-------------------------------------------|
---------------------)------------------)--|
--------------------4------------------3---|
-swell----0-1-0-0-0----000-0-0-1-0-0-0-----|
          *   *   *    ***   *   *   *

----------------------------------------------|
----------------------------------------------|
----------------------------------------------|
---------------------)------------------------|
--------------------5--------------3----------|
-0-0-0-0000-1-0-0-0----000-0-0-1-0---0-4------|
   *   ****   *   *    ***   *   *   *

----------------------------------------------|
----------------------------------------------|
----------------------------------------------|
---------------------)------------------)-----|
--------------------4------------------3------|
-0-0-0-0000-1-0-0-0----000-0-0-1-0-0-0--------|
   *   ****   *   *    ***   *   *   *         
1:55
    
-bend in front of nut--------------------------------------------|
-----------------------------------------------------------------|
-----------------------------------------------------------------|
-----------------------------------------------------------------|
--)(-5------)(-4------)(-4------)(-5------)(-4------)(-4-----4-4-|
-0-----0-0-0-----0-0-0-----0-0-0-----0-0-0-----0-0-0-----0-0-----|
         *         *         *         *         *         *   

-bend in front of nut--------------------------------------------|
-----------------------------------------------------------------|
-----------------------------------------------------------------|
-----------------------------------------------------------------|
--)(-5------)(-4------)(-4------)(-5------)(-4------)(-4-----4-4-|
-0-----0-0-0-----0-0-0-----0-0-0-----0-0-0-----0-0-0-----0-0-----|
         *         *         *         *         *         *  

2:09
------------------------------------------------------------------|
------------------------------------------------------------------|
------------------------------------------------------------------|
------------------------------------------------------------------|
---------------------------------------------------------0--0--00-|
-0-00-00000-00-00--0000-00-00-000-0-00-00000-00-00-0000-01-01-011-|
   ** ***** ** **  **** ** ** ***   ** ***** ** ** **** ** ** ***    

2:16
------------------------------------------------------------------|
------------------------------------------------------------------|
------------------------------------------------------------------|
------------------------------------------------------------------|
-0-00-00000-00-00--0000-00-00-000-0-00-00000-00-00-0000-00-00-000-|
-1-11-11111-11-11--1111-11-11-111-1-11-11111-11-11-1111-11-11-111-|    
 * ** ***** ** **  **** ** ** *** * ** ***** ** ** **** ** ** ***

2:23
------------------------------------------------------------------|
------------------------------------------------------------------|
------------------------------------------------------------------|
------------------------------------------------------------------|
---------------------------------------------------------0--------|
-0-00-00000-00-00--0000-00-00-000-0-00-00000-00-00-0000-01-0-12\--|
   ** ***** ** **  **** ** ** ***   ** ***** ** ** **** ** *    

Tap to rate this tab
# A B C D E F G H I J K L M N O P Q R S T U V W X Y Z