Song name
# A B C D E F G H I J K L M N O P Q R S T U V W X Y Z

Legends Never Die - End Of The Beginning tab

Band- 30 Seconds To Mars
Song- The End of The beginning

Guitar 1
Intro
D|------------------------------------------|
A|------------------------------------------|
F|------------------------------------------|
C|------------------------------------------|
G|-----------------------------11-11-11-11--|
C|--10-10-10-10-10-10-10-10----10-10-10-10--|

Guitar 2   Delay the last note
D|---6p-8---|
A|----------|
F|----------|
C|----------|
G|----------|
C|----------|

Both Guiatrs
D|----------------------------------|
A|----------------------------------|
F|----------------------------------|
C|----------------------------------|
G|----------------------------------|
C|---10-10-10-10-10-10-10-10-10-10--|

Guitar 3
D|---11-11-11--11--11-11--11--11--11-11-11--11--11-11---11-11p-10--|
A|-----------------------------------------------------------------|
F|-----------------------------------------------------------------|
C|-----------------------------------------------------------------|
G|-----------------------------------------------------------------|
C|-----------------------------------------------------------------|

Chorus
D|------------------------------------|
A|------------------------------------|
F|------------------------------------|
C|-333333/6666660000888888/1111/4444--|
G|-333333/6666660000888888/1111/4444--|
C|-333333/6666660000888888/1111/4444--|

D|-------------------------------------------|
A|-------------------------------------------|
F|-------------------------------------------|
C|-333333/6666660000888888/11-11-11-11/4444--|
G|-333333/6666660000888888/11-11-11-11/4444--|
C|-333333/6666660000888888/11-11-11-11/4444--|

D|------------------------------------|
A|------------------------------------|
F|------------------------------------|
C|-333333/6666660000888888/1111/4444--|
G|-333333/6666660000888888/1111/4444--|
C|-333333/6666660000888888/1111/4444--|

D|-------------------------------------------|
A|-------------------------------------------|
F|-------------------------------------------|
C|-333333/6666660000888888/11-11-11-11/4444--|
G|-333333/6666660000888888/11-11-11-11/4444--|
C|-333333/6666660000888888/11-11-11-11/4444--|
Tap to rate this tab
# A B C D E F G H I J K L M N O P Q R S T U V W X Y Z