Song name
# A B C D E F G H I J K L M N O P Q R S T U V W X Y Z

Legiao Urbana - Giz chords

Highlighted       Show chord diagrams
Tom: A
		
(intro) (violão) ( D4 A   D4 A   D4 E   D4 A )

(intro) (guitarra)

(riff 1)

   D     A     D     A     D     E       D     A
E |-----2-0---------2-0---------2----4--------2-0----|
B |---3------2----3------2----3---0----3----3------2-|
G |-2-----------2-----------2-------------2----------|
D |--------------------------------------------------|
A |--------------------------------------------------|
E |--------------------------------------------------|


(riff 1)

  D4    A       D4   A
E mesmo sem te ver
   D4      E       D4     A
Acho até que estou indo bem
D4  A           D4      A
Só apareço por assim dizer,
D4      E
Quando convém

(riff 2)

   A          A/G#         F#m          D
E |-----9----9----9-12-9-----------9-----------10-----|
B |-10---10----9--------10-----10----10-----10----10--|
G |-------------------------11-----------11-----------| (2x)
D |---------------------------------------------------|
A |---------------------------------------------------|
E |---------------------------------------------------|


D    A     ( A  A/G#  F#m  D ) (2x)  (riff 2)
Aparecer ou quando quero

(riff 3)

   Bm    D       E       A       Bm    D       E       F#m
E |----------2-------0-------5-------------2-------0-------2--------------|
B |-----3------3-------0-------5------3------3-------0-------2------2---2-|
G |---4---2---------------6---------4---2---------------2------2--2---2---|
D |-4-------------2---------------4-------------2-------------------------|
A |-----------------------------------------------------------------------|
E |-----------------------------------------------------------------------|


   Bm          D      E
E |------------------2------4--|
B |-------3------3----3-5----5-|
G |----4----4------------------|
D |-4--------------------------|
A |----------------------------|
E |----------------------------|


(riff 3)
Bm     D       E              A
Desenho toda a calçada
      Bm           D             E      F#m
Acaba o giz, tem tijolo de construção
           Bm  D               E
Eu rabisco o sol que a chuva apagou

(riff 1)
D4       A         D4         A
Quero que saibas que me lembro
D4    E           D4           A
Queria até que pudesses me ver
D4      A       D4              A
És parte ainda do que me faz forte
D4           E
E p'ra ser honesto,
        D4      A
Só um pouquinho infeliz

(riff 2)

   A          A/G#         F#m          D
E |-----9----9----9-12-9-----------9-----------10-----|
B |-10---10----9--------10-----10----10-----10----10--|
G |-------------------------11-----------11-----------| (2x)
D |---------------------------------------------------|
A |---------------------------------------------------|
E |---------------------------------------------------|

   A       A/G#      F#m      D
( Mas tudo bem, tudo bem, tudo bem ...) (2x) (riff 2)

guitarra:  riff 3

   Bm    D       E       A       Bm    D       E       F#m
E |----------2-------0-------5-------------2-------0-------2--------------|
B |-----3------3-------0-------5------3------3-------0-------2------2---2-|
G |---4---2---------------6---------4---2---------------2------2--2---2---|
D |-4-------------2---------------4-------------2-------------------------|
A |-----------------------------------------------------------------------|
E |-----------------------------------------------------------------------|


   Bm          D      E
E |------------------2------4--|
B |-------3------3----3-5----5-|
G |----4----4------------------|
D |-4--------------------------|
A |----------------------------|
E |----------------------------|


(riff 3)
   Bm    D       E
La vem lá vem lá vem
   A
De novo:
  Bm       D    E            F#m
Acho que estou gostando de alguém
        Bm     D                E  (A  A/G#  F#m  D)  (riff 2)
E é de ti que não me esquecerei

(riff 2)

   A          A/G#         F#m          D
E |-----9----9----9-12-9-----------9-----------10-----|
B |-10---10----9--------10-----10----10-----10----10--|
G |-------------------------11-----------11-----------| (2x)
D |---------------------------------------------------|
A |---------------------------------------------------|
E |---------------------------------------------------|

Tudo bem, tudo bem...
A             A/G#             F#m    D   (riff 2)
Eu rabisco o sol que a chuva apagou
Tudo bem, tudo bem...
A               A/G#       F#m      D
Acho que estou gostando de alguém
Tudo bem, tudo bem...

(paletadas rápidas,pra cima e pra baixo)
E |14-14-14-12-12-12-12--------------------------------------17--|
B |---------------------15-15-15-14-14-14-12-12-12-12-12--10-----|
Tap to rate this tab
# A B C D E F G H I J K L M N O P Q R S T U V W X Y Z