Song name
# A B C D E F G H I J K L M N O P Q R S T U V W X Y Z

Legiao Urbana - Ainda E Cedo tab

Esse é o acompanhamento do teclado, na guitarra 1, durante toda a música:

E-10----------10--------------------------------------|
B----10--13------10-----------------------------------|
G-----------------------------------------------------|
D-----------------------------------------------------|
A-----------------------------------------------------|
E-----------------------------------------------------|


E-10----------10-------------10-----------------------|
B----10--13------10------10---------------------------|
G---------------------9-------------------------------|
D-----------------------------------------------------|
A-----------------------------------------------------|
E-----------------------------------------------------|

E-----------------------------------------------------|
B-----------------------------------------------------|
G-7--9--10--------------------------------------------|
D-----------------------------------------------------|
A-----------------------------------------------------|
E-----------------------------------------------------|

E-------------10--------------------------------------|
B-----------------10----------------------------------|
G-7--9--10--------------------------------------------|
D-----------------------------------------------------|
A-----------------------------------------------------|
E-----------------------------------------------------|

-----------------------------------------------------------------------------

A guitarra 2 toca uma sequência de PowerChord de D, C e A (Na 6ª corda - 10ª casa, 8ª 
casa e 5ª casa, respectivamente)durante a introdução, o encerramento e o refrão. Durante 
os versos, basta tocar a primeira corda abafando todas as outras:

E--x-----x----x-----------------------------------------|
B--x-----x----x-----------------------------------------|
G--x-----x----x-----------------------------------------|
D--x-----x----x-----------------------------------------|
A--x-----x----x-----------------------------------------|
E- 10----8----5-----------------------------------------|
  (8x) (8x) (16x)

-----------------------------------------------------------------------------

A guitarra 3, ou violão, toca durante toda a música, uma sequência de Dm, C e Am.
Tap to rate this tab
# A B C D E F G H I J K L M N O P Q R S T U V W X Y Z