Song name
# A B C D E F G H I J K L M N O P Q R S T U V W X Y Z

Legion Of Darkness - Lost Atlantis tab

this is the acoustic intro for LOD's lost atlantis...

fingers at the ready...
e----------------------------------|
B----------------------------------|
G---------4-------------4----------|
D-----7-------7-----7-------7-5\7--|
A---7---7---7-----7---7---7--------|
E-5-------------5------------------|

e----------------------------------|
B----------------------------------|
G-----7-----7---7-----10-----9---7-|
D---9-----9---------9------9-------|
A-----------------0------0-----0---|
E-5-----5-----5--------------------|

e----------------------------------|
B----------------------------------|
G-------------5---------------5----|
D-----7---9-----------7---9--------|
A---7---7---7---7---7---7---7---7--|
E-5---------------5----------------|

e----------------------------------|
B----------------------------------|
G-------4--------------------------|
D-----5---5------------ H - P - H -|
A---7-------7---7---2-2(3)3(2)2(3)-|
E-0-----------0---1----------------|

e----------------------------------|
B------------------1---------------|
G-------4----------1---------------|
D-----5---5--------3---------------|
A---7-------7---7--3---------------|
E-0-----------0----1---------------| THEN ON WITH THE METAL!!

i hope the tab helped, leave comments or i'll assume you like H.I.M! cheers

WEBSITE...http://www.legionofdarkness.it/
Tap to rate this tab
# A B C D E F G H I J K L M N O P Q R S T U V W X Y Z