Song name
# A B C D E F G H I J K L M N O P Q R S T U V W X Y Z

Legion Of Doom - The Quiet Screaming tab

this tab is for the song The Quiet Screaming, which is mixed by the Legion of Doom, and 
Brand New's "Quiet Things..." mixed with Dashboard Confessional's "Screaming Infidelities"

awesome song

tuning half step down

Dashboard intro (soft)
e|-------3h2-2~-------3h2-0~-------3h2-2~-------3h2-2--2h3-5--5-----|
b|-------------3~-----------3~-----------3~-------------------------|
g|------------------------------------------------------------------|
d|-----------------------------------------0~-----------------------|   x3
a|-----------------------------3~-----------------------------------|
e|-----3~-----------0~----------------------------------------------|

dashboard intro 2 (loud)
e|----------------------------------------------------------------------|
b|----------------------------------------------------------------------|
g|----------------------------------------------------------------------|
d|----5-5-5-5-5-5-5-5-5-5-5-5-5-5-5-5--2-2-2-2-2-2-2-2-2-2-2-2-2-2-2-2--|
a|----5-5-5-5-5-5-5-5-5-5-5-5-5-5-5-5--2-2-2-2-2-2-2-2-2-2-2-2-2-2-2-2--|x3
e|----3-3-3-3-3-3-3-3-3-3-3-3-3-3-3-3--0-0-0-0-0-0-0-0-0-0-0-0-0-0-0-0--|

e|----------------------------------------------------------------------|
b|----------------------------------------------------------------------|
g|----5-5-5-5-5-5-5-5-5-5-5-5-5-5-5-5--7-7-7-7-7-7-7-7-7-7-7-7-7-7-7-7--|
d|----5-5-5-5-5-5-5-5-5-5-5-5-5-5-5-5--7-7-7-7-7-7-7-7-7-7-7-7-7-7-7-7--|
a|----3-3-3-3-3-3-3-3-3-3-3-3-3-3-3-3--5-5-5-5-5-5-5-5-5-5-5-5-5-5-5-5--|
e|----------------------------------------------------------------------|

brand new verse
e|----------------------------------------------------------------------|
b|----------------------------------------------------------------------|
g|----------------------------------------------------------------------|
d|-------------------------------------5-5-5-5-5-5-5-5-5-5-5-5-5-5-5-5--|
a|----3-3-3-3-3-3-3-3-3-3-3-3-3-3-3-3--3-3-3-3-3-3-3-3-3-3-3-3-3-3-3-3--|
e|----5-5-5-5-5-5-5-5-5-5-5-5-5-5-5-5-----------------------------------|
      ...............................  ...............................
e|----------------------------------------------------------------------|
b|----------------------------------------------------------------------|
g|----------------------------------------------------------------------|
d|-------------------------------------5-5-5-5-5-5-5-5-5-5-5-5-5-5-5-5--|
a|----2-2-2-2-2-2-2-2-2-2-2-2-2-2-2-2--3-3-3-3-3-3-3-3-3-3-3-3-3-3-3-3--|
e|----0-0-0-0-0-0-0-0-0-0-0-0-0-0-0-0-----------------------------------|
      ...............................  ...............................

brand new chorus
e|----------------------------------------------------------------------|
b|----------------------------------------------------------------------|
g|----------------------------------------------------------------------|
d|----5-5-5-5-5-5-5-5-5-5-5-5-5-5-5-5--2-2-2-2-2-2-2-2-2-2-2-2-2-2-2-2--|
a|----5-5-5-5-5-5-5-5-5-5-5-5-5-5-5-5--2-2-2-2-2-2-2-2-2-2-2-2-2-2-2-2--|
e|----3-3-3-3-3-3-3-3-3-3-3-3-3-3-3-3--0-0-0-0-0-0-0-0-0-0-0-0-0-0-0-0--|

e|----------------------------------------------------------------------|
b|----------------------------------------------------------------------|
g|----5-5-5-5-5-5-5-5-5-5-5-5-5-5-5-5--7-7-7-7-7-7-7-7-7-7-7-7-7-7-7-7--|
d|----5-5-5-5-5-5-5-5-5-5-5-5-5-5-5-5--7-7-7-7-7-7-7-7-7-7-7-7-7-7-7-7--|
a|----3-3-3-3-3-3-3-3-3-3-3-3-3-3-3-3--5-5-5-5-5-5-5-5-5-5-5-5-5-5-5-5--|
e|----------------------------------------------------------------------|

Dashboard verse (soft)
e|-------3h2-2~-------3h2-0~-------3h2-2~-------3h2-2--2h3-5--5-----|
b|-------------3~-----------3~-----------3~-------------------------|
g|------------------------------------------------------------------|   x4
d|-----------------------------------------0~-----------------------|
a|-----------------------------3~-----------------------------------|
e|-----3~-----------0~----------------------------------------------|

joint part, brand new bridge, dashboard continues with verse
e|-------------------------|
b|-------------------------|
g|----------------5~----7~-| x2
d|----5~----2~----5~----7~-|
a|----5~----2~----3~----5~-|
e|----3~----0~-------------|


brand new chorus once, then join chorus with "your hair" section
e|----------------------------------------------------------------------|
b|----------------------------------------------------------------------|
g|----------------------------------------------------------------------|
d|----5-5-5-5-5-5-5-5-5-5-5-5-5-5-5-5--2-2-2-2-2-2-2-2-2-2-2-2-2-2-2-2--|
a|----5-5-5-5-5-5-5-5-5-5-5-5-5-5-5-5--2-2-2-2-2-2-2-2-2-2-2-2-2-2-2-2--|
e|----3-3-3-3-3-3-3-3-3-3-3-3-3-3-3-3--0-0-0-0-0-0-0-0-0-0-0-0-0-0-0-0--|

e|----------------------------------------------------------------------|
b|----------------------------------------------------------------------|
g|----5-5-5-5-5-5-5-5-5-5-5-5-5-5-5-5--7-7-7-7-7-7-7-7-7-7-7-7-7-7-7-7--|
d|----5-5-5-5-5-5-5-5-5-5-5-5-5-5-5-5--7-7-7-7-7-7-7-7-7-7-7-7-7-7-7-7--|
a|----3-3-3-3-3-3-3-3-3-3-3-3-3-3-3-3--5-5-5-5-5-5-5-5-5-5-5-5-5-5-5-5--|
e|----------------------------------------------------------------------|
Tap to rate this tab
# A B C D E F G H I J K L M N O P Q R S T U V W X Y Z