Song name
# A B C D E F G H I J K L M N O P Q R S T U V W X Y Z

Legion Of Doom - At Your Funeral For A Friend tab

Hey guys ive managed to tab out Legion of Doom's song At your funeral for a friend. 
Working on the entire song currently. 
Preety tough to tear a song into two different ones. but anyways heres the opening tab! 
By the way this is my first tab so dont rant too much please.

Intro (Guitar 1) x6
Eb|-------------------|
Bb|-------------------|
Gb|-------------------|
Db|---3---2-----3-5-2-|
Ab|-1---3---3h5-------|
Db|-------------------|

Intro (Guitar 2) x4
Eb|-----------------|
Bb|-----------------|
Gb|-----------------|
Db|---7---5---7-8-5-|
Ab|-5---8---7-------|
Db|-----------------|

Intro End (Guitar 1) x1
Eb|---|
Bb|---|
Gb|---|
Db|---|
Ab|-3-|
Db|---|

Intro End (Guitar 1) x1
Eb|---|
Bb|---|
Gb|-5-|
Db|---|
Ab|---|
Db|---|


Any Questions contact me at (sk8board900@comcast.net)!
Tap to rate this tab
# A B C D E F G H I J K L M N O P Q R S T U V W X Y Z