Song name
# A B C D E F G H I J K L M N O P Q R S T U V W X Y Z

Legion Of Doom - At Your Funeral For A Friend tab

-----------------------------------------------------------------------------
	        At Your Funeral for a Friend - The Legion of Doom
-----------------------------------------------------------------------------
Tabbed by: vipguard1
Email: http://www.youtube.com/user/vipguard1

Tuning: Standard

1st Guitar - bars 1 - 8
P|------------------------------*5----------**---------------------------***|

e|--------------------------------------------------------------------------|
B|--------------------------------------------------------------------------|
G|--------------------------------------------------------------------------|
D|------3--------3--------3--------3--------3--------3--------3--------3----|
A|-6-536-5--6-536-5--6-536-5--6-536-5--6-536-5--6-536-5--6-536-5--6-536-5---|
E|4-6------4-6------4-6------4-6------4-6------4-6------4-6------4-6--------|

2nd Guitar - bars 1 - 8
P|---------------------------------------------**------------------------***|

e|--------------------------------------------------------------------------|
B|--------------------------------------------------------------------------|
G|--------------------------------------------------------------------------|
D|-------------------5-3-563-----------5-3-563--5-3-563--5-3-563--5-3-563---|
A|------------------3-6-5-------------3-6-5----3-6-5----3-6-5----3-6-5------|
E|--------------------------------------------------------------------------|


1st Guitar - bars 9 - 16
P|---------------------------------------------------*3---------------------|

e|--------------------------------------------------------------------------|
B|--------------------------------------------------------------------------|
G|--------------------------------------------------------------------------|
D|------3-----------------3--------3--------3--------3--------3-------------|
A|-6-536-5-----------6-536-5--6-536-5--6-536-5--6-536-5--6-536-5------------|
E|4-6---------------4-6------4-6------4-6------4-6------4-6-----------------|

2nd Guitar - bars 9 - 16
P|---------------------------------------------------*6---------------------|

e|--------------------------------------------------------------------------|
B|--------------------------------------------------------------------------|
G|--------------------------------------------------------------------------|
D|-------------------------------------5-3-563--5-3-563--5-3-563------------|
A|------------------------------------3-6-5----3-6-5----3-6-5---------------|
E|--------------------------------------------------------------------------|


P| = effects used [see below]

*# = hit the note 4 times either by quickly picking the note or using effects
**   = palm mute or lift finger quickly after each note 
***  = hold the last note for longer and bend to give more of an effect
Tap to rate this tab
# A B C D E F G H I J K L M N O P Q R S T U V W X Y Z