Song name
# A B C D E F G H I J K L M N O P Q R S T U V W X Y Z

Leif Og Kompisane - Dronningen chords

Highlighted       Show chord diagrams
Leig og Kameratene (1984)
Dronningen


B

E ------------------------------------|
A ------------------------------------|
G ------------------------------------|
D ----------9-------------------------|
B ----------9-------------------------|
E -----7------------------------------|

F#

E ------------------------------------|
A ------------------------------------|
G ------------------------------------|
D ----------4-------------------------|
B ----------4-------------------------|
E -----2------------------------------|

E

E ------------------------------------|
A ------------------------------------|
G -----------9------------------------|
D -----------9------------------------|
B ------7-----------------------------|
E ------------------------------------|


A

E ------------------------------------|
A ------------------------------------|
G ------------------------------------|
D ---------7--------------------------|
B ---------7--------------------------|
E -----5------------------------------|

D

E ------------------------------------|
A ------------------------------------|
G -----------7------------------------|
D -----------7------------------------|
B ------5-----------------------------|
E ------------------------------------|

E

E ------------------------------------|
A ------------------------------------|
G ------------9-----------------------|
D ------------9-----------------------|
B -------7----------------------------|
E ------------------------------------|

INTRO
B

          F#  D         B
Då hu kom inn så snudde adle seg rondt.
           F#     D                B
Eg gjekk i spinn. Hu va så deilige at det gjor vondt.
D               F#    B  D        B
Ka aent konn'eg finna på enn å ta initiativet.
D     F#                 B        D
Eg sa vil du ver med meg nå. Sånt skjer bare ein gang i livet.

A            D                      E          B
Eg kan aldri glemma fusste natt med dronningen.
A               D                   E          B
Når me endeligt sovna med kinn imot kinn.
A          D            E          B
Men når eg våkna opp om morningen,
   A             D           E      B
så va hu ikkje i leiligheden min.

             F# D         B
Eg satt meg ner med kaffi og sigarett.
               F#    D             B
Det e sånt så skjer. Livet ska jo ikkje ver rett.
D                 F#      B    D             B
Men plutseligt så stod hu der. Eg blei heilt forvandla.
D               F#    B    D
Hu hadde på seg ytterkler. Hu hadde...... å ramla.

A            D                      E          B
Eg kan aldri glemma fusste natt med dronningen.
A               D                   E          B
Når me endeligt sovna med kinn imot kinn.
A          D            E          B
Men når eg våkna opp om morningen,
A                D           E     B
så va hu ikkje i leiligheden min.

[SOLO og modulasjon]

A               D                   E          B
Eg kan aldri glemma fusste natt med dronningen.
A               D                   E          B
Når me endeligt sovna med kinn imot kinn.
A          D            E          B
Men når eg våkna opp om morningen,
A                D           E     B
så va hu ikkje i leiligheden min.


Eg kan aldri glemma fusste natt med dronningen.
Når me endeligt sovna med kinn imot kinn.
Men når eg våkna opp om morningen,
så va hu ikkje i leiligheden min.
Tap to rate this tab
 
# A B C D E F G H I J K L M N O P Q R S T U V W X Y Z