Song name
# A B C D E F G H I J K L M N O P Q R S T U V W X Y Z

Lemon Demon - Toy Food tab

---------------------------------------------------------------------------
			     Toy Food - Lemon Demon
---------------------------------------------------------------------------
Tabbed by:THEFLAMINGTPOTS
(I'm not kidding this song is pretty repetitive on the riffs!)

Tuning: Standard
____________________
Order
Intro  x2
Verse  x2
Chorus x2
Bridge x2
Verse  x2
Chorus x2
Verse  x2?
____________________

Intro
e|1-3--1-3----------------|
B|-------------3-----3----|
G|----------2-----2-------|
D|------------------------|
A|------------------------|
E|------------------------|


Verse
e|1-3-1-3-----------|
B|------------3----3|
G|--------2------2--|
D|------------------|
A|------------------|
E|------------------|

Chorus
e|--1-3--1-1----1-3-1-1--------------------|
B|----------3-----------3------------------|
G|-----------------------------------------|
D|-----------------------------------------|
A|-----------------------------------------|
E|-----------------------------------------|

Bridge
e|-----------------------------------------|
B|-----------3---------3-------------------|
G|-----2-2-2----2-2--2---------------------|
D|-----------------------------------------|
A|-----------------------------------------|
E|-----------------------------------------|


Tap to rate this tab
 
# A B C D E F G H I J K L M N O P Q R S T U V W X Y Z