Song name
# A B C D E F G H I J K L M N O P Q R S T U V W X Y Z

Lemon Demon - Action Movie Hero Boy tab

--------------------------------------------------------------------------
		  Action Movie Hero Boy - Lemon Demon
--------------------------------------------------------------------------
Tabbed by:THEFLAMINGTPOTS
Standard Tuning!

You repeat this a few times, but, I will release a fuller tab later!
e|-------------1-1-------------------2-------------------------------------|
B|--4--4-0-2-------0---------------1---------------------------------------|
G|-------------------3-----------1-----------------------------------------|
D|-----------------------------1-------------------------------------------|
A|---------------------------0---------------------------------------------|
E|-------------------------0-----------------------------------------------|
Tap to rate this tab
# A B C D E F G H I J K L M N O P Q R S T U V W X Y Z