Lemon Demon - Brodyquest tab

Here's my tab for BRODYQUEST lol.
Tuning: EADGBE

|-------------------------|      
|-------------------------|      
|-------------------------|      
|--------------2-h3h4h5---| x2 
|-3-3-3-----3-------------|      
|-------5p3---------------|     

|-------------------------|
|-------------------------|
|-2-2-2-------------2-h5--| x1
|-------5p2-3--3-h5-------|
|-------------------------|
|-------------------------|

|-------------------------|      
|(same as the first part)-|     
|-------------------------|      
|--------------2-h3h4h5---| x1
|-3-3-3-----3-------------|      
|-------5p3---------------|
Tap to rate this tab
 
# A B C D E F G H I J K L M N O P Q R S T U V W X Y Z