Song name
# A B C D E F G H I J K L M N O P Q R S T U V W X Y Z

Lemon Jelly - Elements tab

Keyboard

|-----------------------------|
|-----4------4------4------4--|
|---5------5------5------5----|
|-6------5------4------5------|
|-----------------------------|
|-----------------------------|


Guitar
Bb
|--------------------------------|
|-------3-------4------4---------|
|-----3-----3------3------3---3--|
|---3---------3------3------3----|
|-1------------------------------|
|--------------------------------|


and that's how you play this song.
Tap to rate this tab
 
# A B C D E F G H I J K L M N O P Q R S T U V W X Y Z