Song name
# A B C D E F G H I J K L M N O P Q R S T U V W X Y Z

Lemon Jelly - The Fruity Track tab

I just fiddled around and came up with this. Hope it sounds good.

INTRO
E------------------------|
B------------------------|
G------------------------|
D----------------5-7-7-7-|
A---3--5-7-5-------------|
E------------------------|

E------------------------|
B------------------------|
G------------------------|
D----------------5-7-7-7-|
A---3--5-7-5-------------|
E------------------------|Keep on repeating

ENDING
When the singer says millions of peaches
E------------------------------|
B------------------------------|
G------------------------------|
D---9--7--5--7--5---5-5---7--9-|
A------------------------------|
E------------------------------|

E------------------------------|
B------------------------------|
G------------------------------|
D---9--7--5--7--5---5-5---7--9-|
A------------------------------|
E------------------------------|Now just keep on going
Tap to rate this tab
# A B C D E F G H I J K L M N O P Q R S T U V W X Y Z