Song name
# A B C D E F G H I J K L M N O P Q R S T U V W X Y Z

Lemon Jelly - Staunton Lick tab

Most of this song is created by the funk that is Lemon Jelly, but I've guitared a few of 
parts, and spliced a few togeather to make it sound half decient solo acoustic.

Hope it works for you.

....hold down a chord of C....

e:|------0--------0--|
B:|------1--------1--|
G:|------2--------2--|
D:|------------------|
A:|--3--------3------|
E:|------------------|

After a few, I like to throw in the bass line aswell, a little tricky but if played well 
pretty cool

e:|------------0----------0--|
B:|------------1----------1--|
G:|------------2----------2--|
D:|-----------------0--------|
A:|------0--3--3-------3-----|
E:|----3---------------------|

Just before the main verse kicks in, a Cmaj is played

e:|----0-----|
B:|----1-----|
G:|----2-----|
D:|----0-----|
A:|----3-----|
E:|----3-----|

And after it does, something similar to these chords are played:

e:|---10---8-----|
B:|---8----6-----|
G:|---9----7-----|
D:|---x----x-----|
A:|---10---8-----|
E:|---8----6-----|

Note, play the low E with your thumb

Listen to the song to figure out the rythem
Tap to rate this tab
# A B C D E F G H I J K L M N O P Q R S T U V W X Y Z