Guitaretab - guitar tabs
Song name
# A B C D E F G H I J K L M N O P Q R S T U V W X Y Z

Lemon Jelly - Nice Weather For Ducks Acoustic tab

This is my first whole song tab, and im proud of it!
I couldnít find any other tabs for this song so I decided I would give it a go!
I hope you enjoy!
My favourite acoustic transformed piece! Good Luck!
B33D13Z!

Intro
Guitar 1
|-------------------------------|
|--1-0---1-0---1-0-3-------3----|
|------0-----0-------0---0---0--|
|----------------------0--------| X4
|--3----------------------------|
|------------------3------------|

Gutar 2

------------------------

Guitar 1
|--------------------|
|------1-----0---0---|
|----0-----0---------|
|--2-----0-----0-----|  X8
|--------------------|
|--------------------|
[ Tab from: http://www.guitaretab.com/l/lemon-jelly/92435.html ]
Guitar 2
|----------8-------|---------3-------|--------10p8--8---|----------3-------|
|------8-----8---8-|-----3-----3---3-|------8---------8-|------3-----3---3-|
|----9---9-----9---|---4---4-----4---|----9-------------|----4---4-----4---|
|------------------|-----------------|------------------|------------------|
|------------------|-----------------|------------------|------------------|
|--8---------------|-3---------------|--8---------------|--3---------------|
X2
Pre Chorus
Guitar 1
|---------------------------|
|--0-----0-0---0--1--0-3--1-|
|--0-----0-0---0--0--0-2--0-|
|----------------------0----| X4
|-----------------3--0----3-|
|--3-----3-3---3------------|

Guitar 2

-------------------------------

Chorus

G
All the ducks are swimming in the water

G                C         D
Faldaraldaraldo  Faldaraldaraldo



Break
C	Bm	Am	G


Trumpet solo
|-----------10----12-10-------|-----------------10-------------------------|
|--12-10-------12-------13-12-|-----10-12-10-------12-13-12-10-------10----|
|--------12-------------------|--12----------12----------------12-12----12-|
|-----------------------------|--------------------------------------------|
|-----------------------------|--------------------------------------------|
|-----------------------------|--------------------------------------------|

|-----------10----12-10-------|-----------------10------------------------|
|--12-10-------12-------13-12-|-----10-12-10-------12---------------------|
|--------12-------------------|--12----------12-------12-------9-11-11h12-|
|-----------------------------|-----------------------------12------------|
|-----------------------------|-------------------------------------------|
|-----------------------------|-------------------------------------------|

Thatís about it.
Hope this was helpful.
B33D13Z
Related for Nice Weather For Ducks Acoustic tab