Lemonade Mouth - Determinate tab

-------------------------------------------------------------------------------
			     Determinate - Lemonade Mouth
-------------------------------------------------------------------------------
Tabbed by: John Posemato
Email: jposemato@yahoo.com
Key:E(4Sharps: F#,C#,G#,D#)
Tuning: Standard (eBGDAE)

Brother asked for help with the song and I noticed that it happened to be in
lack of tabs. I found one tab for it which was credited bad, and after 
looking at the tab I noticed a few minor flaws. Anything wrong with my tab, 
please feel free to email, however the email is an "out of use" email which I 
rarely check. Order and dictations are at the bottom however it is a fairly 
simple song that shouldn't take to much thought.

Intro:
e|----------12-11-12---------------------------------------------------------|
B|-----(14)----------------------14-12-14------------------------------------|
G|-------------------------(14)-----------------(11)---14-13-11--------------|
D|--11-----------------------------------------------------------------------|
A|-----------------------12--------------------------------------------------|
E|-----------------------------------------14--------------------------------|
() - All notes in parenthesis are octave hops, it would sound find to
instead of playing the lead note simply playing the note twice, for instance
the first (14), instead of playing D11 then B14, if it is too far of a 
stretch play B14,B14

Intro Exit(Part A):
e|---------------------------------------------------------------------------|
B|---------------------------------------------------------------------------|
G|----------------------------------------------------------------13----11-9-|
D|---------------------------------------------------------------------------|
A|--12-12-12--14-16-------14-14-14--16-18--------16-16-16--18-19-------------|
E|---------------------------------------------------------------------------|

Intro Exit(Part B): (Not going to lie, this part I couldn't comprehend myself
so I wrote a simple little fill which fits well. Also sorry for the horrible
spacing but I wanted it to look nice and well put together too so, the count
for that part is the same as before until 16-14-12-14-12-11... as that
will descend like a scale)
e|---------------------------------------------------------------------------|
B|---------------------------------------------------------------------------|
G|---------------------------------------------------------------------------|
D|---------------------------------------------------------------------------|
A|-12-12-12-14-16-14-14-14-16-18-16-14-12-14-12-11-12-11-9-11-9-7-9-7-6-7-6-4|
E|---------------------------------------------------------------------------|

Verse (Strum Power Chords like chords)
e|---------------------------------------------------------------------------|
B|---------------------------------------------------------------------------|
G|-6-6-6-6-6----6-6-6-6-6----6-6-6-6-6-----13-11-9---------------------------|
D|-6-6-6-6-6----6-6-6-6-6----6-6-6-6-6-----13-11-9---------------------------|
A|-4-4-4-4-4----4-4-4-4-4----4-4-4-4-4-----11-9--7---------------------------|
E|---------------------------------------------------------------------------|
   v ^ v ^ v    v ^ v ^ v    v ^ v ^ v     v  v  v

Chorus: (I didn't count each power chord but it should be fairly simple to
pick out the chord change.
e|--------------------------|------------------------------------------------|
B|--------------------------|------------------------------------------------|
G|--2----4----6----8--------|--22222222-44444444-6-6-6-9-8-6-13-11-9---------|
D|--2----4----6----8--------|--22222222-44444444-6-6-6-9-8-6-13-11-9---------|
A|--0----2----4----6--------|--00000000-22222222-4-4-4-7-6-4-11-9--7---------|
E|--------------------------|------------------------------------------------|
    This part repeats a few times then end on the second half

Intro: x3                 } 0:00-0:19
Intro Exit(Part A): x1    } 0:20-0:27 
Intro Exit(Part B): x1    } 0:28-0:33
Pause                     } 0:34-0:37
Verse: x2                 } 0:37-0:50
Pause                     } 0:50-0:56
Chorus: x3, then ending   } 0:57-1:23
Verse: x2                 } 1:24-1:37
Pause                     } 1:38-1:44
Chorus: x3, then ending   } 1:45-2:11
Verse: x3                 } 2:12-2:33 (Throughout the rap)
Chorus: x4                } 2:33-3:00                        
Pause                     } 3:00-3:01                         C# PWRCHRD
Chorus: x2                } 3:02-3:13                            G-6
(End the song by hitting a C# Power Chord after the last chorus) D-6 
                                                                 A-4
************************************
| ^   up strum
| v   down strum
| /   slide up
| \   slide down
| h   hammer-on
| p   pull-off
| ~   vibrato
| +   harmonic
| x   Mute note
| b   Bend
| pb  Pre-bend
| br  Bend release
| pbr Pre-bend release
| brb Bend release bend

************************************
Tap to rate this tab
 
# A B C D E F G H I J K L M N O P Q R S T U V W X Y Z