Song name
# A B C D E F G H I J K L M N O P Q R S T U V W X Y Z

Lemonade Mouth - Determinate tab

Determinate
By: Lemonade Mouth


Tuning: EADGBe (Standard)

Verse:
e/----------------------------------------------------|
B/----------------------------------------------------|
G/---6-6-6-------------6-6-6----------------6-6-6-----|
D/---6-6-6-------------6-6-6----------------6-6-6-----|
A/---4-4-4-------------4-4-4----------------4-4-4-----|
E/----------------------------------------------------|
   I...    I Wanna Cry         I Can't Deny

/-----------------------------------------------------------------------------|
/---------------9--8--7-------------------------------------------------------|
/---------------------------6-6-6----------------6-6-6------------------6-6-6-|
/---------------------------6-6-6----------------6-6-6------------------6-6-6-|
/ --------------------------4-4-4----------------4-4-4------------------4-4-4-|
/-----------------------------------------------------------------------------|
   Tonight I Wanna Up and Hide      And Get Inside         It Isn't Right

/-------------------------|
/-------------9--8--7-----|
/-------------------------|
/-------------------------|
/-------------------------|
/-------------------------|
 I Gotta Live In My Life

Bridge:
/-----------------------------------------------------------------|
/-----------------------------------------------------------------|
/-----------------------------------------------------------------|
/------------------------------------------------------------/----|
/--9-9-9-9-9-9-9-9-7-7-7-7-7-7-7-7-6-6-6-6-6-6-6-6-----------/----|
/------------------------------------------------------------/----|
       IK I,IK I,  IK IGotta Do It, IK I IK I,    I Know I Gotta Do It

Chorus
/-------------------------------------------------------------------------|
/-------------------------------------------------------------------------|
/-------------------------------------------------------------------------|
/--7--7--7--7--7--7--7--7--9--9--9--9--9--9--9--9-11-11-11-11-11-11-11-11-|
/--7--7--7--7--7--7--7--7--9--9--9--9--9--9--9--9-11-11-11-11-11-11-11-11-|
/--5--5--5--5--5--5--5--5--7--7--7--7--7--7--7--7-9--9--9--9--9--9--9--9--|
   Gotta Turn The          World In2 ur Dance Flr Determinate

/--------------------------\
/--------------------------\
/--------------------------\
/-14-14-14-14-14-14-14-14--\  Repeat All Chorus A Total Played 4 Times
/-14-14-14-14-14-14-14-14--\
/-12-12-12-12-12-12-12-12--\
 Detirminate

(Repeat Verse)
(Repeat Bridge)
(Repeat Chorus)
(For Wen's Rap, Do Verse)
(Repeat Chorus)
(For Outro, Do Chorus)
Tap to rate this tab
 
# A B C D E F G H I J K L M N O P Q R S T U V W X Y Z