Song name
# A B C D E F G H I J K L M N O P Q R S T U V W X Y Z

Lemonade Mouth - Breakthrough tab

Lemonade Mouth - Breakthrough
=============================

From the Disney Channel movie Lemonade Mouth.
This is how I play it: http://www.youtube.com/watch?v=CaIZ8lWl9bI

Tuning: Drop D (DADGBe)



### PIANO INTRO ### 00:00 ###


### VERSE ### 00:17 ###
e|----------------|----------------|----------------|-----------------|
B|----------------|----------------|----------------|-----------------|
G|----------------|----------------|----6-6-6-------|-----------------| 3x
D|----6-6-6-------|----4-4-4-------|----6-6-6-------|-----6-6-6-------|
A|----6-6-6-------|----4-4-4-------|----4-4-4-------|-----6-6-6-------|
D|----6-6-6-------|----4-4-4-------|----------------|-----6-6-6-------|

e|----------------|----------------|----------------|-----------------|
B|----------------|----------------|----------------|-----------------|
G|----------------|----------------|----6-6-6-------|-----------------|
D|----6-6-6-------|----4-4-4-------|----6-6-6-------|-----------------|
A|----6-6-6-------|----4-4-4-------|----4-4-4-------|-----------------|
D|----6-6-6-------|----4-4-4-------|----------------|-----------------|



### CHORUS ### 00:51 ###
e|------------------------------------------|
B|------------------------------------------|
G|------------88888888--11111111--66666666--| 2x
D|--66666666--88888888--11111111--66666666--|
A|--66666666--66666666--99999999--44444444--|
D|--66666666--------------------------------|



### POST-CHORUS ### 01:09 ###
e|------------------------------------------|
B|------------------------------------------|
G|--------------------------------66666666--|
D|--66666666--11111111--44444444--66666666--|
A|--66666666--11111111--44444444--44444444--|
D|--66666666--11111111--44444444------------|



### VERSE ### 01:17 ###

### CHORUS ### 01:51 ###



### RAP ### 02:09 ###
e|------------------------------------------|------------------------------------------|
B|------------------------------------------|------------------------------------------|
G|--------------------------------666666----|--------------------------------666-------|
D|--66666666--11111111--44444444--666666----|--66666666--11111111--44444444--666-------|
A|--66666666--11111111--44444444--444444----|--66666666--11111111--44444444--444-------|
D|--66666666--11111111--44444444------------|--66666666--11111111--44444444------------|



### PIANO INTERLUDE ### 02:25 ###



### CHORUS ### 02:42 ###

### POST-CHORUS ### 03:00 ###


Tap to rate this tab
 
# A B C D E F G H I J K L M N O P Q R S T U V W X Y Z