Song name
# A B C D E F G H I J K L M N O P Q R S T U V W X Y Z

Lemonade Mouth - Determinate tab

Artist: Lemonade Mouth
Song: Determinate 
Tabs By Madridda
This is my first tab so I hope you guys like it.

Piano Intro: 00:00

Verse: 00:36
e|--------------|-------------|---------------|-----------------|
B|--------------|-------------|---------------|-----(9-8-7)-----|
G|----6-6-6-----|----6-6-6----|-----6-6-6-----|-----------------| 2x
D|----6-6-6-----|----6-6-6----|-----6-6-6-----|------6-5-4------|
A|----4-4-4-----|----4-4-4----|-----4-4-4-----|-----------------|
E|--------------|-------------|---------------|-----------------|

Pre-Chorus: 00:50
e|------------------------------------------|
B|------------------------------------------|
G|------------------------------------------|Palm Muted
D|------------------------------------------|
A|--99999999--77777777--6666666666666666----|
E|------------------------------------------|

Chorus: 00:56
e|------------------------------------------|
B|------------------------------------------|
G|--22222222--44444444--66666666--99999999--|
D|--22222222--44444444--66666666--99999999--| 3x
A|--00000000--22222222--44444444--77777777--|
E|------------------------------------------|

e|------------------------------------------------------|
B|------------------------------------------------------|
G|--22222222--44444444------------9-9-------------------|
D|--22222222--44444444---11-11-11-----11-11-11\--6-5-4--|
A|--00000000--22222222----------------------------------|
E|------------------------------------------------------|

Verse: 01:24
Pre-Chorus: 01:38
Chorus: 01:45
Verse:(Rap) 02:12 (3x Instead of 2x)
 
Chorus: (Ending) 02:32
e|------------------------------------------|
B|------------------------------------------|
G|--22222222--44444444--66666666--99999999--|
D|--22222222--44444444--66666666--99999999--| 3x
A|--00000000--22222222--44444444--77777777--|
E|------------------------------------------|

e|------------------------------------------|
B|------------------------------------------|
G|--22222222--44444444--66666666--99999-----|
D|--22222222--44444444--66666666--99999-----| 
A|--00000000--22222222--44444444--77777-----|
E|------------------------------------------|


e|------------------------------------------|          
B|------------------------------------------|  
G|--22222222--44444444--66666666--99999999--|    
D|--22222222--44444444--66666666--99999999--| 2x 
A|--00000000--22222222--44444444--77777777--|
E|------------------------------------------|

(Alternative 2nd Guitar)
e|------------------------------------------|
B|------------------------------------------|
G|--999999999--88888888--6666666666666666---|
D|------------------------------------------| 
A|------------------------------------------|
E|------------------------------------------|
Tap to rate this tab
 
# A B C D E F G H I J K L M N O P Q R S T U V W X Y Z