Song name
# A B C D E F G H I J K L M N O P Q R S T U V W X Y Z

Lemuria - Length Away tab

-----------------------------------------------------------------------------
                             LENGTH AWAY - Lemuria
-----------------------------------------------------------------------------

Verse:
e|----------------------------------------------------------------------|
B|---------------------------------------------------------------0------|
G|---0----0---0----0---0-----0---0---0----0----0--0----0---------0------|
D|---2----9---9----9---2-----9---9---9----2----9--9----9----0----2------|
A|-3---/10------10---3---/10-------10---3---/10-----10-----0-----2------|
E|-------------------------------------------------------2----0---------|


Chorus:
e|----------------(3)------------|
B|---3------3------0-------------|
G|---0------2------0-------------|
D|---0------0------2-------------|
A|---2------0------2-------------|
E|-3------2------0---------------|


Riff:                      1st, 2nd      3rd ending
e|-----------------------------------|------------|
B|-10--10--10--10--10-8----0--0------|-0----------|
G|--0---0---0---0---0-0----0--0------|-0----------|
D|--9---9---9---9---9-9----2--2------|-2----------|
A|-10--10--10--10--1010----3--3------|-2----------|
E|-----------------------------------|-0----------|

"I stay its length away"    
                         1st, 2nd      3rd ending
e|---------------------------------|-------------------|
B|---3----3----3----3----0----0----|--3-3-3-3-3-3-3-3--|
G|---0----0----2----2----0----0----|--0-0-0-0-0-0-0-0--|
D|---0----0----0----0----2----2----|--2-2-2-2-2-2-2-2--|
A|---2----2----0----0----2----2----|--3-3-3-3-3-3-3-3--|
E|-3----3----2----2----0----0------|-------------------|
Tap to rate this tab
# A B C D E F G H I J K L M N O P Q R S T U V W X Y Z